To celebrate the anniversary, I am giving you (finally...) : iPhone LickByNeck !!!!!!

The One You Love (BASIC)

Glenn Frey's tune fingerstyle chord melody guitar BASIC arrangement played in the key of G.

http://classicalguitartablature.blogspot.com/
The One You Love - Glenn Frey - BASIC ARRANGEMENT played in the key of G
http://classicalguitartablature.blogspot.com/
E|------------------------ 3-- 5--| 7-- 7---- 7--------------------|
B|---------------- 3-- 5----------| 5-- 5---- 5-- 8-- 5------ 3----|
G|-------- 0------ 0--------------| 5-- 5---- 5------ 5-------- 4--|
D|---- 0------ 0-- 0--------------|-------------- 5-- 5------ 4----|
A|--------------------------------|--------------------------------|
E| 3-------------- 3--------------| 5---------- 5---------------- 3|
http://classicalguitartablature.blogspot.com/
E|---------------------- 3-- 5-- 7|---- 7--------------------------|
B|---- 3-------- 3-- 5-- 3-- 3----| 5-- 5 8-- 5-- 8---- 8----10----|
G|---- 4-------- 4-- 4-- 4-- 4----| 5-- 5 5-------- 5-- 5------ 7--|
D|---- 4-------- 4-- 4------------|------ 5-- 5-- 5---- 5------ 9--|
A|--------------------------------|--------------------------------|
E|---------- 3-- 3----------------| 5-------------- 5--------------|
http://classicalguitartablature.blogspot.com/

http://classicalguitartablature.blogspot.com/
E|---- 7---------------- 3-- 5-- 7|---- 7--------------------------|
B|----10------ 0-- 3-- 5 3-- 5----| 8-- 8-------- 8----------------|
G|---- 7------ 0-- 4-- 4 4-- 4----| 9-- 9-------- 9-- 9------ 7----|
D|------------ 0 4---- 4----------|-------------- 9---------- 7----|
A|10------------------------------|--------------------------------|
E|---------------- 3--------------| 8---------- 8-- 8------------ 7|
http://classicalguitartablature.blogspot.com/
E|------------------------------ 7|---- 7-------------------- 3----|
B|---------------------- 8--10----| 5------ 8-- 5 8-- 8------ 3----|
G|---- 7---- 7-- 7-- 9------------| 5-- 5-------- 5-- 5------ 0----|
D|---- 7---- 7-- 7----------------|-------------- 5-- 5------------|
A|--------------------------------|-------------- 5-- 5------------|
E|---------- 7-- 0----------------| 5------------------------------|
http://classicalguitartablature.blogspot.com/
E|------------------------12--10--| 7 3 5-- 3------ 5-- 7-- 5-- 3--|
B|---- 3------------------12--10--| 3-- 3 5 3------ 3-- 3-- 3-- 3--|
G|---- 0--------------12----------| 4 4---- 4-- 4------ 4-- 4-- 4--|
D|---- 0--------------------------|--------------------------------|
A|--------------10----------------|--------------------------------|
E| 3-------- 3--------------------| 3------ 3----------------------|
http://classicalguitartablature.blogspot.com/
E|--------------------------------|---------------- 5-- 7-- 5-- 3--|
B| 5-- 5------ 5 8---- 8------ 5--|---- 3---- 3---- 3-- 3-- 3-- 3--|
G| 5-- 5------ 5-- 5-- 5------ 4--|---- 4------ 4-- 4-- 4 4---- 4--|
D| 5-- 5------ 5 5---- 5------ 5--|---- 5------ 5------------------|
A|--------------------------------|--------------------------------|
E| 5---------- 5-------------- 3--|------------ 3------------------|
http://classicalguitartablature.blogspot.com/
E|---------------------------- 5--|-- 7---------- 5-- 7---- 5-- 3--|
B| 5---- 8-- 5-- 8-- 8-------- 3--|-- 3------ 3-- 3-- 3---- 3-- 3--|
G| 5---- 5-- 5-- 5------------ 4--|-- 4---- 4---- 4-- 4---- 4-- 4--|
D| 5-- 5-- 5 5-- 5-- 5------------|--------------------------------|
A|--------------------------------|--------------------------------|
E| 5-------------- 5---------- 3--|-------------- 3----------------|
http://classicalguitartablature.blogspot.com/
E|------ 3------ 3-- 3------ 0----|-------------- 5-- 7-- 5-- 3----|
B| 5-- 5 5-- 5-- 5-- 5------ 3----|---- 3------ 3 0---- 0 0-- 0----|
G| 4-- 4 4-- 4-- 4-- 4------ 2----|---- 2------ 2 0---- 0 0-- 0----|
D| 5-- 5---- 5--------------------|---- 0------ 0------------------|
A| 3------------ 3-------------- 2|------------ 2------------------|
E|--------------------------------|---------------- 0--------------|
http://classicalguitartablature.blogspot.com/
E|-------------------------- 3----|--------------------------------|
B| 5---- 5 8-- 5-- 8-- 8------ 3--|---- 3------------------ 3------|
G| 5---- 5 5-- 5-- 5-- 5------ 0--|---- 0-------------- 0------ 0--|
D| 5---- 5 5-- 5-- 5-- 5----------|---- 0---------- 0--------------|
A|---------------- 5--------------|--------------------------------|
E| 5------------------------------| 3---------- 3------------------|
http://classicalguitartablature.blogspot.com/
E|---------------------- 7--------|--------------------1214------12|
B|------------------------------15|----15------15----12--12------13|
G|------ 4------------------------|14--14------14----14--14--14--12|
D|---- 4---- 4-------- 4---- 4----|12--12------12------------------|
A|--------------------------------|14----------14---------------- 0|
E| 3------------ 3----------------|--------------------------------|
http://classicalguitartablature.blogspot.com/
E|--------------------------------|------------------12--14--12----|
B|--15------12--------------------|15--1515--15--15----------10----|
G|--12------12------1412------12--|14--1414--14--14----------11----|
D|--14------14------14--14--------|12--1212--12--12----------------|
A|------------ 0------------------|14------------14----------------|
E|--------------------------------|------------------------------10|
http://classicalguitartablature.blogspot.com/
E|--------------------------------|---------------- 5-- 7-- 5------|
B|------10------------------------|---------------------------- 8--|
G|--11--------11------------------|-------- 5----------------------|
D|--------------------------------|---- 5------ 5------------------|
A|---------------------------- 5--| 5------------------------------|
E|------------------------------ 5|--------------------------------|
http://classicalguitartablature.blogspot.com/
E|--------------------------------|---------------- 5-- 7-- 5-- 3--|
B| 5-- 5------ 5 8---- 8------ 5--|---- 3---- 3---- 3-- 3-- 3-- 3--|
G| 5-- 5------ 5-- 5-- 5------ 4--|---- 4------ 4-- 4-- 4 4---- 4--|
D| 5-- 5------ 5 5---- 5------ 5--|---- 5------ 5------------------|
A|--------------------------------|--------------------------------|
E| 5---------- 5-------------- 3--|------------ 3------------------|
http://classicalguitartablature.blogspot.com/
E|---------------------------- 5--|-- 7---------- 5-- 7---- 5-- 3--|
B| 5---- 8-- 5-- 8-- 8-------- 3--|-- 3------ 3-- 3-- 3---- 3-- 3--|
G| 5---- 5-- 5-- 5------------ 4--|-- 4---- 4---- 4-- 4---- 4-- 4--|
D| 5-- 5-- 5 5-- 5-- 5------------|--------------------------------|
A|--------------------------------|--------------------------------|
E| 5-------------- 5---------- 3--|-------------- 3----------------|
http://classicalguitartablature.blogspot.com/
E|------------------12------12----|--10---------- 5-- 7-- 5-- 3----|
B|------ 8-------- 8-------- 7----|---- 7-------- 0---- 0 0-- 0----|
G| 9---- 9-- 9-------------- 7----|---- 7---- 7-- 0---- 0 0-- 0----|
D| 9---- 9------ 9------ 9--------|-------- 7----------------------|
A|--------------------------------|--------------------------------|
E| 8------------ 8-------------- 7|---------------- 0--------------|
http://classicalguitartablature.blogspot.com/
E|---------------------------- 3--|------------------------ 3-- 5--|
B| 5---- 5 8-- 5-- 8-- 8------ 3--|---- 3-------- 3---- 5----------|
G| 5---- 5 5-- 5-- 5-- 5------ 4--|------ 4-------- 4--------------|
D| 5---- 5 5-- 5-- 5-- 5----------|------ 5-------- 5-- 5----------|
A|---------------- 5--------------|--------------------------------|
E| 5------------------------------| 3---------- 3------------------|
http://classicalguitartablature.blogspot.com/
E| 7-- 7---- 7--------------------|---------------------- 3-- 5-- 7|
B| 5-- 5---- 5-- 8-- 5------ 3----|---- 3-------- 3-- 5-- 3-- 3----|
G| 5-- 5---- 5------ 5-------- 4--|---- 4-------- 4-- 4-- 4-- 4----|
D|-------------- 5-- 5------ 4----|---- 4-------- 4-- 4------------|
A|--------------------------------|--------------------------------|
E| 5---------- 5---------------- 3|---------- 3-- 3----------------|
http://classicalguitartablature.blogspot.com/
E|---- 7--------------------------|---- 7---------------- 3-- 5-- 7|
B| 5-- 5 8-- 5-- 8---- 8----10----|----10------ 0-- 3-- 5 3-- 5----|
G| 5-- 5 5-------- 5-- 5------ 7--|---- 7------ 0-- 4-- 4 4-- 4----|
D|------ 5-- 5-- 5---- 5------ 9--|------------ 0 4---- 4----------|
A|--------------------------------|10------------------------------|
E| 5-------------- 5--------------|---------------- 3--------------|
http://classicalguitartablature.blogspot.com/
E|---- 7--------------------------|------------------------------ 7|
B| 8-- 8-------- 8----------------|---------------------- 8--10----|
G| 9-- 9-------- 9-- 9------ 7----|---- 7---- 7-- 7-- 9------------|
D|-------------- 9---------- 7----|---- 7---- 7-- 7----------------|
A|--------------------------------|--------------------------------|
E| 8---------- 8-- 8------------ 7|---------- 7-- 0----------------|
http://classicalguitartablature.blogspot.com/
E|---- 7---------------------- 3--|--------------------------------|
B| 5------ 8-- 5 8-- 8-------- 3--|--------------------------------|
G| 5-- 5-------- 5-- 5-------- 0--|--------------------------------|
D|-------------- 5-- 5------------|--------------------------------|
A|-------------- 5-- 5------------|--------------------------------|
E| 5-------------------------- 3--|--------------------------------|
http://classicalguitartablature.blogspot.com/

0 ความคิดเห็น:

แสดงความคิดเห็น