To celebrate the anniversary, I am giving you (finally...) : iPhone LickByNeck !!!!!!

Promise Me (BASIC)

Beverly Craven's classic tune fingerstyle chord melody guitar BASIC arrangement played in the key of Cm.

http://classicalguitartablature.blogspot.com/
Promise Me- BASIC ARRANGEMENT played in the key of Cm
http://classicalguitartablature.blogspot.com/
E|--------------------------------|--------------------------------|
B| 4---- 4---- 4-- 3-- 3---- 3-- 1|------ 1---- 1-- 3-- 3---- 3-- 4|
G|---- 5---- 5------ 3---- 3---- 1|---- 1-- 1------ 3 3---- 3------|
D|-- 5---- 5-- 5---- 3-- 3------ 3|-- 1---- 1---- 1-- 3-- 3------ 3|
A| 3-------------- 3--------------| 3-------------- 3------------ 3|
E|--------------------------------|--------------------------------|
http://classicalguitartablature.blogspot.com/
E|--------------------------------|--------------------------------|
B|---- 4---- 4---- 3---- 3---- 3--| 1---- 1---- 1-- 3--------------|
G| 5 5---- 5---- 3---- 3---- 3----| 1-- 1---- 1---- 3--------------|
D|-- 5---- 5-- 5---- 3---- 3---- 3|-- 1---- 1---- 1 3--------------|
A|---------------- 3--------------| 3-------------- 3--------------|
E|--------------------------------|--------------------------------|
http://classicalguitartablature.blogspot.com/

http://classicalguitartablature.blogspot.com/
E|--------------------------------|--------------------------------|
B|---- 4 4 4---- 4---- 3 3--------|---- 3 3 3 4-- 1------ 1--------|
G|---- 5 5 5-- 5 3---- 3 3---- 5 3|---- 3 3 3 3 3 1---- 1-- 1-- 3--|
D|-- 5------ 5-- 3 3--------------|-- 3-------------- 1---- 1-- 3--|
A| 3-------------- 3--------------|--------------------------------|
E|--------------------------------| 3-------------- 4------ 4-- 6--|
http://classicalguitartablature.blogspot.com/
E|------------------------------ 8|--------------------------------|
B|---- 4 4-- 4 6------ 4-- 3----11|--11-- 8---- 8-------- 8--------|
G|---- 5 5-- 5 3---- 3------ 5 310|--10------10------ 8------ 8----|
D|-- 5-- 5-- 5 3-- 3--------------| 8-- 8------------10----10------|
A| 3------------ 3--------------10|----------------11--------------|
E|--------------------------------|--------------------------------|
http://classicalguitartablature.blogspot.com/
E|---- 811-- 8-- 3-------------- 6| 4-- 3--------------------------|
B|--11 8 8-- 811 3-- 6-- 4------ 3|-- 3 3-- 4---- 1----------------|
G|-- 8 8-- 8 8 8 3-- 3-- 3 5-- 3 3|-- 3 3-- 3---- 1---- 1------ 1 3|
D|-- 8-------- 8---- 3-- 3--------|------------ 3---- 1------ 1 1 1|
A|---------------- 3--------------|--------------------------------|
E| 8---------------------------- 3|-------------- 4-------- 4-- 3--|
http://classicalguitartablature.blogspot.com/
E|---------- 3-- 3----------------|--------------------------------|
B| 1-- 1 4------ 3-- 6 4-------- 1|---- 1------ 1 3---- 4----------|
G| 1-- 1-------- 1-- 4 4-- 5---- 3|-- 3---- 3---- 3-- 3 3------ 0--|
D|-- 1-------- 1-- 3 3 3----------|-- 1-- 1------ 1 3------ 5-- 0 1|
A|------------------------------ 3|-------------- 5------ 6--------|
E| 1-------------- 3--------------|---------------------------- 3--|
http://classicalguitartablature.blogspot.com/
E|--------------------------------|--------------------------------|
B|---- 1---- 1-------- 1 0--------|---- 4 4 4---- 4---- 3 3--------|
G| 1 1---- 1-------- 0---- 0------|---- 5 5 5-- 5 3---- 3 3---- 5 3|
D|------ 1---- 1-- 0-------- 0----|-- 5------ 5-- 3 3--------------|
A|--------------------------------| 3-------------- 3--------------|
E| 4------------ 3----------------|--------------------------------|
http://classicalguitartablature.blogspot.com/
E|--------------------------------|------------------------------ 8|
B|---- 3 3 3 4-- 1------ 1--------|---- 4 4-- 4 6------ 4-- 3----11|
G|---- 3 3 3 3 3 1---- 1-- 1-- 3--|---- 5 5-- 5 3---- 3------ 5 310|
D|-- 3-------------- 1---- 1-- 3--|-- 5-- 5-- 5 3-- 3--------------|
A|--------------------------------| 3------------ 3--------------10|
E| 3-------------- 4------ 4-- 6--|--------------------------------|
http://classicalguitartablature.blogspot.com/
E|--------------------------------|-- 3 4 3-- 1 1------------------|
B|--11-- 8---- 8-------- 8--------|-- 3 3-- 0-- 4-- 4---- 3-- 1----|
G|--10------10------ 8------ 8----| 4------ 0-- 3-------- 3--------|
D| 8-- 8------------10----10------|---------- 0-------- 1----------|
A|----------------11--------------|-------- 2---- 3------ 3---- 5 6|
E|------------------------------ 3|--------------------------------|
http://classicalguitartablature.blogspot.com/
E|-- 8 9-- 8-- 6------------------|---------- 8 6------------------|
B|-- 5 5 8--11 9-- 9-- 8-- 6------|---- 4 6---- 6-- 9-- 6----------|
G|-- 5 5-- 9---- 8 8---------- 8--|-- 5---------- 6-------- 6---- 5|
D|-------- 8-------- 6------ 6----| 6---------------- 6------ 6-- 6|
A| 7------10---- 8------ 8------ 4|-------------- 6----------------|
E|--------------------------------|---------------------- 6--------|
http://classicalguitartablature.blogspot.com/
E|--------------------------------|---- 3 4-- 6-- 8-- 6------------|
B|-- 4 4------ 4-- 8--1111----11--| 6-------------- 6------ 9 6----|
G|-------------- 5 8------------ 8|-- 5-------- 5-- 6------ 6------|
D|---------- 6------ 8------ 8----|-------------------- 6---- 6-- 6|
A|--------------------------------| 4-------------- 6--------------|
E| 4-------------- 8--------------|------------------------ 6------|
http://classicalguitartablature.blogspot.com/
E|------------1311-- 9---- 8------|------------ 8 6----------------|
B| 4---- 4------ 8-- 8---- 811-- 9|------ 9------ 6---- 6-------- 4|
G| 5 5---------- 8---------- 8-- 6|---- 6-- 8-------- 6------ 1-- 3|
D|-- 6------------------ 8--------|-- 6-------------- 6---------- 1|
A|----------------10--------------| 8-------------- 6--------------|
E| 4------------------------------|---------------------- 1---- 3--|
http://classicalguitartablature.blogspot.com/
E|--------------------------------|-- 3-- 4-- 6---- 8-- 9 8-- 6----|
B|-- 4 4---- 4-- 8--1111----11-- 6|-------------- 6 8---- 8------ 9|
G|------------ 5 8------------ 8--| 5---------- 5-- 9---- 6---- 6 8|
D| 6------ 6------ 8------ 8------|------------------ 8---------- 6|
A|------------------------------ 4|------ 4---------------- 7------|
E| 4---- 4------ 8------ 8--------|---------------- 8--------------|
http://classicalguitartablature.blogspot.com/
E|--------------------------------|-------- 8-------------- 8------|
B|------ 9-- 9 8 6----------------|---- 8 9---------- 8-- 9--------|
G|---- 8---- 8 5 5----------------|----1010----10---- 6-- 6---- 6 5|
D|-- 6------ 6 8-- 6--------------|--10------10---- 6-------- 6-- 6|
A| 8-------- 8 7-- 5--------------|-------------- 6----------------|
E|--------------------------------| 9------------------------------|
http://classicalguitartablature.blogspot.com/
E|--------------------------------|---- 3 4-- 6-- 8-- 6------------|
B|-- 4 4------ 4-- 8--1111----11--| 6-------------- 6------ 9 6----|
G|-------------- 5 8------------ 8|-- 5-------- 5-- 6------ 6------|
D|---------- 6------ 8------ 8----|-------------------- 6---- 6-- 6|
A|--------------------------------| 4-------------- 6--------------|
E| 4-------------- 8--------------|------------------------ 6------|
http://classicalguitartablature.blogspot.com/
E|------------1311-- 9---- 8------|------------ 8 6----------------|
B| 4---- 4------ 8-- 8---- 811-- 9|------ 9------ 6---- 6-------- 4|
G| 5 5---------- 8---------- 8-- 6|---- 6-- 8-------- 6------ 1-- 3|
D|-- 6------------------ 8--------|-- 6-------------- 6---------- 1|
A|----------------10--------------| 8-------------- 6--------------|
E| 4------------------------------|---------------------- 1---- 3--|
http://classicalguitartablature.blogspot.com/
E|--------------------------------|-- 3-- 4-- 6---- 8-- 9 8-- 6----|
B|-- 4 4---- 4-- 8--1111----11-- 6|-------------- 6 8---- 8------ 9|
G|------------ 5 8------------ 8--| 5---------- 5-- 9---- 6---- 6 8|
D| 6------ 6------ 8------ 8------|------------------ 8---------- 6|
A|------------------------------ 4|------ 4---------------- 7------|
E| 4---- 4------ 8------ 8--------|---------------- 8--------------|
http://classicalguitartablature.blogspot.com/
E|--------------------------------|-------- 8-------------- 8------|
B|------ 9-- 9 8 6----------------|---- 8 9---------- 8-- 9--------|
G|---- 8---- 8 5 5----------------|----1010----10---- 6-- 6---- 6--|
D|-- 6------ 6 8-- 6--------------|--10------10---- 6-------- 6----|
A| 8-------- 8 7-- 5--------------|-------------- 6----------------|
E|--------------------------------| 9---------------------------- 4|
http://classicalguitartablature.blogspot.com/
E| 4------------------------------|------------ 8------------------|
B| 4-------- 4------ 4------------|------ 8 9---------------- 8-- 9|
G| 3------ 3---- 3------ 3--------|--------------------------------|
D|---------------- 3------ 3------|-- 6-------------------- 6------|
A|--------------------------------|-------------------- 6----------|
E|--------------------------------| 6------------------------------|
http://classicalguitartablature.blogspot.com/
E|-- 8------------------------ 4--|--------------------------------|
B|--------------------------------|--------------------------------|
G|-------------------------- 3----|--------------------------------|
D|--------------------------------|--------------------------------|
A|--------------------------------|--------------------------------|
E|-------------------------- 4----|--------------------------------|
http://classicalguitartablature.blogspot.com/

0 ความคิดเห็น:

แสดงความคิดเห็น