To celebrate the anniversary, I am giving you (finally...) : iPhone LickByNeck !!!!!!

Sea Of Love (BASIC)

Classic tune fingerstyle chord melody guitar BASIC arrangement played in the key of C.

Sea Of Love - BASIC Arrangement played in the key of C.
http://classicalguitartablature.blogspot.com/
E|--------------------------------|--------------------------------|
B|------ 1---------------- 1------|-------- 1-------------- 1------|
G|---- 0---- 0-------- 0---- 0----|---- 0---- 0-------- 0---- 0----|
D|-- 2-------- 2---- 2-------- 2--|-- 2-------- 2---- 2-------- 2--|
A| 3-------------- 3------------ 3|-------------- 3----------------|
E|--------------------------------|--------------------------------|
http://classicalguitartablature.blogspot.com/
E| 0------ 0-- 0------------------| 4------ 0-------- 0------------|
B| 1---------- 1---------- 1------| 3------ 3-- 3------------ 3----|
G| 0-- 0-------------- 0---- 0----| 4-- 4------ 4---------- 4-- 4--|
D|-- 2-------------- 2-------- 2--|-- 2---------------- 2----------|
A| 3-------------- 3--------------|--------------------------------|
E|--------------------------------| 0-------------- 0--------------|
http://classicalguitartablature.blogspot.com/
E|------ 0------------------------|------------------------------ 5|
B|------ 1-- 3-- 1------ 1---- 3 4|---- 3------ 3---------- 3------|
G|---- 2---- 2-------- 2-------- 5|------ 5------ 5---- 5---- 5----|
D|-- 3-------- 3---- 3------ 3----|-- 4-------------- 4-------- 4--|
A|------------------------------ 5|---------------- 5--------------|
E| 1------------ 1----------------|--------------------------------|
http://classicalguitartablature.blogspot.com/
E|---- 3---- 3-- 3---- 5----------|--------------------------------|
B| 5-- 5------ 5 5---- 5---- 5----|------ 4---- 3------------------|
G| 4---- 4------ 4------ 4---- 4--|---- 5-------------- 5------ 0--|
D|--------------------------------|-- 4-------------- 4-- 4--------|
A| 3------------ 3----------------| 5-------------- 5--------------|
E|--------------------------------|--------------------------------|
http://classicalguitartablature.blogspot.com/
E|--------------------------------|--------------------------------|
B|---- 1------ 1-------- 3--------|-------- 1-------------- 0------|
G| 2-------- 2-------- 2---- 2----|---- 0---- 0-------- 0---- 0----|
D| 2------ 2-------- 1-------- 1--|-- 2-------- 2---- 3-------- 3--|
A| 3------------------------------| 3------------------------------|
E|---------------- 1--------------|---------------- 3--------------|
http://classicalguitartablature.blogspot.com/
E| 0------ 0-- 0------------------| 4------ 0-------- 0------------|
B| 1---------- 1---------- 1------| 3------ 3-- 3------------ 3----|
G| 0-- 0-------------- 0---- 0----| 4-- 4------ 4---------- 4-- 4--|
D|-- 2-------------- 2-------- 2--|-- 2---------------- 2----------|
A| 3-------------- 3--------------|--------------------------------|
E|--------------------------------| 0-------------- 0--------------|
http://classicalguitartablature.blogspot.com/
E|------ 0------------------------|------------------------------ 5|
B|------ 1-- 3-- 1------ 1---- 3 4|---- 3------ 3---------- 3------|
G|---- 2---- 2-------- 2-------- 5|------ 5------ 5---- 5---- 5----|
D|-- 3-------- 3---- 3------ 3----|-- 4-------------- 4-------- 4--|
A|------------------------------ 5|---------------- 5--------------|
E| 1------------ 1----------------|--------------------------------|
http://classicalguitartablature.blogspot.com/
E|---- 3---- 3-- 3---- 5----------|--------------------------------|
B| 5-- 5------ 5 5---- 5---- 5----|------ 4---- 3------------------|
G| 4---- 4------ 4------ 4---- 4--|---- 5-------------- 5------ 0--|
D|--------------------------------|-- 4-------------- 4-- 4--------|
A| 3------------ 3----------------| 5-------------- 5--------------|
E|--------------------------------|--------------------------------|
http://classicalguitartablature.blogspot.com/
E|--------------------------------|--------------------------------|
B|---- 1------ 1-------- 3--------| 1------ 1------ 1---- 0-- 1----|
G| 2-------- 2-------- 2---- 2----| 0-- 0---- 0---- 0---- 0-- 2----|
D| 2------ 2-------- 1-------- 1--|-- 2-------- 2-------- 0-- 3----|
A| 3------------------------------| 3-------------- 3---- 2---- 0--|
E|---------------- 1--------------|--------------------------------|
http://classicalguitartablature.blogspot.com/
E| 3---------------------- 5------|--------------------------------|
B| 3------ 3---------------- 8----|10 8-------- 8-- 1-- 1---- 1----|
G|---- 4-------------- 7------ 7--| 9--10----10---- 0-- 2---- 2----|
D|-- 3-------------- 5------------|--------10------ 2-- 2---- 2----|
A|--------------------------------| 8------------------------------|
E| 3---------- 5 6 7--------------|---------------- 0---- 1---- 2--|
http://classicalguitartablature.blogspot.com/
E| 3-------------------- 5--------|--------------------------------|
B| 3------ 3---------------- 8----|10 8----------------------------|
G|---- 4-------------- 7------ 7--| 9--10----10--------10----10----|
D|-- 3-------------- 5------------|10------10--10----10----10--10--|
A|--------------------------------| 8-------------- 8--------------|
E| 3-------- 5 6-- 7--------------|--------------------------------|
http://classicalguitartablature.blogspot.com/
E| 0------------------------------| 3------------------------------|
B|-------- 0-------------- 0------| 3------ 3-------------- 6------|
G|---- 0---- 0-------- 0---- 0----|---- 4-------------- 7---- 7----|
D|-- 0-------- 0---- 0-------- 0--|-- 3-------------- 5-- 6---- 6--|
A|--------------------------------|--------------------------------|
E| 0-------------- 0--------------| 3-------- 5 6-- 7--------------|
http://classicalguitartablature.blogspot.com/
E| 0------ 0-- 0------------------| 4------ 0-------- 0------------|
B| 1---------- 1---------- 1------| 3------ 3-- 3------------ 3----|
G| 0-- 0-------------- 0---- 0----| 4-- 4------ 4---------- 4-- 4--|
D|-- 2-------------- 2-------- 2--|-- 2---------------- 2----------|
A| 3-------------- 3--------------|--------------------------------|
E|--------------------------------| 0-------------- 0--------------|
http://classicalguitartablature.blogspot.com/
E|------ 0------------------------|------------------------------ 5|
B|------ 1-- 3-- 1------ 1---- 3 4|---- 3------ 3---------- 3------|
G|---- 2---- 2-------- 2-------- 5|------ 5------ 5---- 5---- 5----|
D|-- 3-------- 3---- 3------ 3----|-- 4-------------- 4-------- 4--|
A|------------------------------ 5|---------------- 5--------------|
E| 1------------ 1----------------|--------------------------------|
http://classicalguitartablature.blogspot.com/
E|---- 3---- 3-- 3---- 5----------|--------------------------------|
B| 5-- 5------ 5 5---- 5---- 5----|------ 4---- 3------------------|
G| 4---- 4------ 4------ 4---- 4--|---- 5-------------- 5------ 0--|
D|--------------------------------|-- 4-------------- 4-- 4--------|
A| 3------------ 3----------------| 5-------------- 5--------------|
E|--------------------------------|--------------------------------|
http://classicalguitartablature.blogspot.com/
E|--------------------------------|------------------------------ 5|
B|---- 1------ 1-------- 3--------|-------- 1-------------- 0------|
G| 2-------- 2-------- 2---- 2----|---- 0---- 0-------- 0---- 0----|
D| 2------ 2-------- 1-------- 1--|-- 2-------- 2---- 3-------- 3--|
A| 3------------------------------| 3------------------------------|
E|---------------- 1--------------|---------------- 3--------------|
http://classicalguitartablature.blogspot.com/
E|---- 3---- 3-- 3---- 5----------|--------------------------------|
B| 5-- 5------ 5 5---- 5---- 5----|------ 4---- 3------------------|
G| 4---- 4------ 4------ 4---- 4--|---- 5-------------- 5------ 0--|
D|--------------------------------|-- 4-------------- 4-- 4--------|
A| 3------------ 3----------------| 5-------------- 5--------------|
E|--------------------------------|--------------------------------|
http://classicalguitartablature.blogspot.com/
E|------------ 0-- 1------ 1 0----|--------------------------------|
B|---- 1---- 3---- 1------ 1-- 3--| 1------------------------------|
G| 2-------------- 2-- 2----------| 0------------------------------|
D| 2------ 2-------- 3------------| 2------------------------------|
A| 3------------------------------| 3-- 2 0------------------------|
E|---------------- 1--------------|---------- 3-- 1---- 0----------|
http://classicalguitartablature.blogspot.com/
E|--------------------------------|--------------------------------|
B|--------------------------------|--------------------------------|
G|--------------------------------|--------------------------------|
D|--------------------------------|--------------------------------|
A|-------- 3----------------------|--------------------------------|
E|--------------------------------|--------------------------------|
http://classicalguitartablature.blogspot.com/

0 ความคิดเห็น:

แสดงความคิดเห็น