To celebrate the anniversary, I am giving you (finally...) : iPhone LickByNeck !!!!!!

The Search Is Over (BASIC)

The Survivor's tune fingerstyle chord melody guitar BASIC arrangement played in the key of G.

The Search Is Over - Survivor - BASIC ARRANGEMENT played in the key of G
http://classicalguitartablature.blogspot.com/
E| 3------ 3------ 0 3 2 0--------|---------------- 0 3 2 0--------|
B| 3------ 3---- 3 1---- 3 3------|------------ 3-- 1---- 3 3------|
G| 0-------------- 0---- 2-- 2----| 0---- 0-------- 0---- 2-- 2-- 4|
D|---- 0---------------------- 4--|---- 0---- 0---------------- 4--|
A|---------------- 3---- 5--------|---------------- 3---- 5--------|
E| 3------------------------------| 3------------------------------|
http://classicalguitartablature.blogspot.com/
E|---- 3-- 5---- 3----------------|---- 3-- 5---- 3----------------|
B|-- 3-------------- 3------------|-- 3----------------------------|
G|------------ 4-------- 4------ 4|------------ 4------------------|
D| 5-------- 5-------------- 5----|---------- 5--------------------|
A|------------------------------ 3|------------------------ 3-- 5--|
E| 3------------------------------|--------------------------------|
http://classicalguitartablature.blogspot.com/

http://classicalguitartablature.blogspot.com/
E|---- 3-- 5---- 3----------------|---- 3-- 5---- 7----------------|
B|-- 3---------------- 3----------|-- 3------ 3-- 7---------- 8----|
G| 4---------- 4-------- 4------ 4|------------ 4 9------ 8------12|
D| 5-------- 5-------------- 5----|------------------ 7-- 7------14|
A|------------------------------ 3|--------------------------------|
E| 3------------------------------|-------------- 7----------------|
http://classicalguitartablature.blogspot.com/
E|----------12--10-- 7------------|-------- 8---- 7----------------|
B|--1212---------- 7 7------ 7----|-- 8 8-------- 8---- 810-- 8----|
G|--12--12----12-- 7 7------ 7-- 9|-- 9 9------ 9 7-- 7-- 7-- 7--14|
D|----------14------------ 7------|--1010----10---- 9------ 7-- 714|
A|--------------------------------|--------------10------ 9--------|
E| 0---- 0------ 7-------------- 8|------ 8---------------------- 0|
http://classicalguitartablature.blogspot.com/
E|----------12--10-- 7------------|---------- 8-- 7------ 9-- 7-- 9|
B|-------------- 7-- 710-- 8------|-- 8-- 8------ 7------------10 9|
G|12----12------ 7-- 7 7-- 7 7----| 9 9-- 9------ 9-------------- 9|
D|14--14-------------- 9-- 9 9----|--1010--10--10---- 9 9----------|
A|--------------------------------|--------------------------------|
E|-------------- 7-------- 7------| 8------------ 7-------------- 0|
http://classicalguitartablature.blogspot.com/
E|-- 7------------------ 5 4 2----|---------------------------- 5 9|
B|-- 9------------ 2---- 2-- 2 5 7|-- 9---------------------- 5-- 9|
G|-- 9-- 9-------- 2---- 2-- 2 2 9|-- 9------ 9---------- 6------ 9|
D|---------------- 2 2---------- 7|-- 7-- 7------ 7-- 9 9----------|
A|---------- 7 6-- 4--------------|--------------------------------|
E|------------------------------ 7|---------------- 7--------------|
http://classicalguitartablature.blogspot.com/
E|---- 7---------------- 5 4 2----|---------------------------- 910|
B|---- 9---------- 2---- 2-- 2 5 7|-------- 7----------------10--10|
G|---- 9 9-------- 2---- 2-- 2 2 9|---- 9-- 9-- 9 8-------- 9---- 9|
D|---------------- 2 2------------| 7-- 7------ 7 7-- 9 911--------|
A|---------- 7 6-- 4--------------|--------------------------------|
E| 0------------------------------| 7-------------- 7--------------|
http://classicalguitartablature.blogspot.com/
E|---------------------- 8--------|---- 8-------------- 8 7---- 5--|
B|--------10----------------1210 8|10--10---------- 7--------------|
G|-------- 9---- 9---- 9----------| 9---------- 9 5----------------|
D|---- 9--------10--10------------|10------10-------------------- 9|
A|10------------------------------| 0------------ 6----------------|
E|---------- 7---- 8--------------|------------------------------ 0|
http://classicalguitartablature.blogspot.com/
E|------------ 7 8-- 7---- 5---- 3|------ 3------------------------|
B|10--------1010 8-- 8---- 7-- 8 3|------ 3------------ 8 810------|
G| 7 7------ 7 7-- 9 9-- 5-- 5----| 0---------------- 7-- 7 7------|
D|-------- 9 9-------------- 7----|-- 0-------- 0---- 9------------|
A|---------------------- 5--------|----------------10----10 9------|
E|---------------- 8--------------| 3------------------------------|
http://classicalguitartablature.blogspot.com/
E| 7---- 7------------ 7----------|---------- 7-- 7----------------|
B| 8-- 8 8---- 810-- 7 7--10---- 8|---- 8--10---- 8-------- 810----|
G| 7-- 7 7---- 7 7-- 7 7-- 7-- 7 9|---- 9-------- 7------ 7 7 7----|
D|-- 9-------- 9 7-- 7------ 7--10|--10---------------- 9-- 7 7----|
A|--------------------------------|----------------10------ 9------|
E| 0-------------- 7---- 7------ 8|------ 8------------------------|
http://classicalguitartablature.blogspot.com/
E| 7---- 7------------ 7----------|---------------------------- 7--|
B| 8-- 8 8---- 810-- 7 7--10---- 8|---- 8 8-- 7 7 7-- 8 8----------|
G| 7-- 7 7---- 7 7-- 7 7-- 7-- 7 7|-- 7---- 7 7 7 7-- 7 7----------|
D|-- 9-------- 9 7-- 7------ 7----| 7------ 7 7 7 7-- 7 7-- 7------|
A|--------------------------------|--------------------------------|
E| 0-------------- 7---- 7------ 8|--------------------------------|
http://classicalguitartablature.blogspot.com/
E|--------12---- 7-- 7 710-- 7----| 5-- 5 5-- 7-- 5----------------|
B|13----13------13-- 8 8 8-- 8----| 5---- 5 8-- 5 5------ 5------13|
G|14--14---------- 7 7 7 7-- 7 7--| 5 5-- 5 5 5---- 5 5---- 5----14|
D|--14------14-------------- 9----|-------- 5-------- 5------ 5--14|
A| 0------------------------------| 5-------------- 5------------ 0|
E|-------------- 7-------- 7------|--------------------------------|
http://classicalguitartablature.blogspot.com/
E|--------12------ 7 7-- 710 7----| 7 5----------------------------|
B|--1313--1313---- 8 8-- 8 8 8--10| 5 5------ 5--------------------|
G|----14--1414---- 7 7-- 7 7 7----| 5 5---- 5-- 5---------------- 4|
D|--1414------14------------------|------ 5-------- 5--------------|
A|--------------------------------| 5------------------------------|
E|---------------- 7--------------|--------------------------------|
http://classicalguitartablature.blogspot.com/
E|---- 3-- 5---- 3----------------|---- 3-- 5---- 3----------------|
B|-- 3-------------- 3------------|-- 3----------------------------|
G|------------ 4-------- 4------ 4|------------ 4------------------|
D| 5-------- 5-------------- 5----|---------- 5--------------------|
A|------------------------------ 3|------------------------ 3-- 5--|
E| 3------------------------------|--------------------------------|
http://classicalguitartablature.blogspot.com/
E|---- 3-- 5---- 3----------------|---- 3-- 5---- 7----------------|
B|-- 3---------------- 3----------|-- 3------ 3-- 7---------- 8----|
G| 4---------- 4-------- 4------ 4|------------ 4 9------ 8------12|
D| 5-------- 5-------------- 5----|------------------ 7-- 7------14|
A|------------------------------ 3|--------------------------------|
E| 3------------------------------|-------------- 7----------------|
http://classicalguitartablature.blogspot.com/
E|----------12--10-- 7------------|-------- 8---- 7----------------|
B|--1212---------- 7 7------ 7----|-- 8 8-------- 8---- 810-- 8----|
G|--12--12----12-- 7 7------ 7-- 9|-- 9 9------ 9 7-- 7-- 7-- 7--14|
D|----------14------------ 7------|--1010----10---- 9------ 7-- 714|
A|--------------------------------|--------------10------ 9--------|
E| 0---- 0------ 7-------------- 8|------ 8---------------------- 0|
http://classicalguitartablature.blogspot.com/
E|----------12--10-- 7------------|---------- 8-- 7------ 9-- 7-- 9|
B|-------------- 7-- 710-- 8------|-- 8-- 8------ 7------------10 9|
G|12----12------ 7-- 7 7-- 7 7----| 9 9-- 9------ 9-------------- 9|
D|14--14-------------- 9-- 9 9----|--1010--10--10---- 9 9----------|
A|--------------------------------|--------------------------------|
E|-------------- 7-------- 7------| 8------------ 7-------------- 0|
http://classicalguitartablature.blogspot.com/
E|-- 7------------------ 5 4 2----|---------------------------- 5 9|
B|-- 9------------ 2---- 2-- 2 5 7|-- 9---------------------- 5-- 9|
G|-- 9-- 9-------- 2---- 2-- 2 2 9|-- 9------ 9---------- 6------ 9|
D|---------------- 2 2---------- 7|-- 7-- 7------ 7-- 9 9----------|
A|---------- 7 6-- 4--------------|--------------------------------|
E|------------------------------ 7|---------------- 7--------------|
http://classicalguitartablature.blogspot.com/
E|---- 7---------------- 5 4 2----|---------------------------- 910|
B|---- 9---------- 2---- 2-- 2 5 7|-------- 7----------------10--10|
G|---- 9 9-------- 2---- 2-- 2 2 9|---- 9-- 9-- 9 8-------- 9---- 9|
D|---------------- 2 2------------| 7-- 7------ 7 7-- 9 911--------|
A|---------- 7 6-- 4--------------|--------------------------------|
E| 0------------------------------| 7-------------- 7--------------|
http://classicalguitartablature.blogspot.com/
E|---------------------- 8--------|---- 8-------------- 8 7---- 5--|
B|--------10----------------1210 8|10--10---------- 7--------------|
G|-------- 9---- 9---- 9----------| 9---------- 9 5----------------|
D|---- 9--------10--10------------|10------10-------------------- 9|
A|10------------------------------| 0------------ 6----------------|
E|---------- 7---- 8--------------|------------------------------ 0|
http://classicalguitartablature.blogspot.com/
E|------------ 7 8-- 7---- 5---- 3|-------- 3------ 0 3 2 0--------|
B|10--------1010 8-- 8---- 7-- 8--| 3------ 3---- 3 1---- 3 3------|
G| 7 7------ 7 7-- 9 9-- 5-- 5----| 0-------------- 0---- 2-- 2----|
D|-------- 9 9-------------- 7----|---- 0---------------------- 4--|
A|---------------------- 5--------|---------------- 3---- 5--------|
E|---------------- 8--------------| 3------------------------------|
http://classicalguitartablature.blogspot.com/
E|---------------- 0 3 2 0--------|--------------------------------|
B|------------ 3-- 1---- 3 3------|--------------------------------|
G| 0---- 0-------- 0---- 2-- 2----| 0------------------------------|
D|---- 0---- 0---------------- 4--| 0------------------------------|
A|---------------- 3---- 5--------|--------------------------------|
E| 3---------------------------- 3|--------------------------------|
http://classicalguitartablature.blogspot.com/

0 ความคิดเห็น:

แสดงความคิดเห็น