To celebrate the anniversary, I am giving you (finally...) : iPhone LickByNeck !!!!!!

Silence Is Golden (BASIC)

The Tremeloes' classic tune fingerstyle chord melody guitar BASIC arrangement played in the key of G.

http://classicalguitartablature.blogspot.com/
Silence Is Golen - BASIC ARRANGEMENT played in the key of G
http://classicalguitartablature.blogspot.com/
E|--------------------------------|--------------------------------|
B|-------- 1-- 0-- 0--------------| 0---- 0-------------- 0--------|
G|-------------- 2-- 2-- 0--------| 0---- 0---------- 0---------- 2|
D|-------------------------- 4----|---- 0---------- 0-------- 0----|
A|--------------------------------|--------------------------------|
E|--------------------------------| 3---------- 3------------------|
http://classicalguitartablature.blogspot.com/
E|--------------------------------|--------------------------------|
B|-------- 3----------------------| 0---- 0------ 1------ 3--------|
G|------ 2---------- 2------------| 0---- 0------ 0----------------|
D|-- 4------------ 4---- 4--------|-- 0-------- 0---- 0-------- 0--|
A| 5---------- 5-------------- 5--|---------------- 2--------------|
E|--------------------------------| 3------------------------------|
http://classicalguitartablature.blogspot.com/
E|--------------------------------|--------------------------------|
B|-------- 3----------------------| 0------ 0-------------- 0------|
G| 2---- 2---------------- 2------|------ 0-------- 2--------------|
D|---- 4-------------- 4------ 4--|-- 0-------- 0------ 0------ 0--|
A| 5---------- 5-- 5--------------|---------------- 2--------------|
E|--------------------------------| 3------------------------------|
http://classicalguitartablature.blogspot.com/
E|--------------------------------|-------- 7----------------------|
B| 1---- 1-------- 0---- 1--------|------------------------10------|
G| 0---- 0------ 0----------------| 7---- 7------------------------|
D|---- 2------ 2---- 2-------- 2--|---- 9------ 9------ 9------ 9--|
A| 3------------------------------|10------------------------------|
E|---------------- 3--------------|---------------- 7--------------|
http://classicalguitartablature.blogspot.com/
E| 3------------ 7------ 5------ 7|---------------------- 7------ 5|
B| 5---- 5------ 5------ 5------ 8|-------- 8-------------------- 3|
G| 4---- 4------ 5-------------- 7|---- 7------------------------ 5|
D|-- 5-------- 5------ 5------ 5--|-- 9-------- 9------ 9------ 9--|
A| 3-------------- 5------------10|--------------------------------|
E|--------------------------------|----------------10--------------|
http://classicalguitartablature.blogspot.com/
E|------------------------ 5------| 7-------------- 8------10------|
B|------ 3---------------- 5------| 7------ 7------ 8--------------|
G|---- 5---------------------- 5--| 7---- 7-------- 7--------------|
D|-- 5-------- 5---- 5------------|---- 9------ 9------ 7------ 7--|
A| 0-------------- 5--------------|10------------------------------|
E|--------------------------------|---------------- 7--------------|
http://classicalguitartablature.blogspot.com/
E| 5------------------------------|--------------------------------|
B| 5---- 5------------ 5------ 5--| 0------ 0-------------- 0------|
G| 5---- 5------------ 5------ 5--|------ 0-------- 2--------------|
D|-- 5-------- 5------ 5------ 5--|-- 0-------- 0------ 0------ 0--|
A|-------------- 5-------- 5------|---------------- 2--------------|
E| 5------------------------------| 3------------------------------|
http://classicalguitartablature.blogspot.com/
E|--------------------------------|-------- 7----------------------|
B| 1---- 1-------- 0---- 1--------|------------------------10------|
G| 0---- 0------ 0----------------| 7---- 7------------------------|
D|---- 2------ 2---- 2-------- 2--|---- 9------ 9------ 9------ 9--|
A| 3------------------------------|10------------------------------|
E|---------------- 3--------------|---------------- 7--------------|
http://classicalguitartablature.blogspot.com/
E| 3------------ 7------ 5------ 7|---------------------- 7------ 5|
B| 5---- 5------ 5------ 5------ 8|-------- 8-------------------- 3|
G| 4---- 4------ 5-------------- 7|---- 7------------------------ 5|
D|-- 5-------- 5------ 5------ 5--|-- 9-------- 9------ 9------ 9--|
A| 3-------------- 5------------10|--------------------------------|
E|--------------------------------|----------------10--------------|
http://classicalguitartablature.blogspot.com/
E|------------------------ 5---- 3|--------------------------------|
B|------ 3---------------- 5------| 3------ 3---------- 3------ 3--|
G|---- 5---------------------- 5--| 0-- 0-------------- 0------ 0--|
D|-- 5-------- 5---- 5------------|-- 0-------- 0------ 0------ 0--|
A| 0-------------- 5--------------|--------------------------------|
E|--------------------------------| 3-------------- 3------ 3------|
http://classicalguitartablature.blogspot.com/
E|--------------------------------|-------- 3---- 2------ 0--------|
B| 5------ 1------ 3------ 1------|-------------- 3------ 3------ 3|
G| 5------ 0------ 0------ 2------|------ 0---- 0---------------- 2|
D|---- 5------ 2------ 0------ 2--|---- 0-------------- 0------ 0--|
A| 5------ 3------ 2------ 0------|------------------------------ 2|
E|--------------------------------| 3-------------- 3--------------|
http://classicalguitartablature.blogspot.com/
E|--------------------------------|--------------------------------|
B|------ 0------------------------|---------- 0--------------------|
G|---- 2-------------- 2---- 2----|---- 0 2------ 0------ 2--------|
D|-- 0------ 0-------- 0------ 0--|-- 2-------------- 4-------- 0--|
A|------------------------------ 0|-------------- 5----------------|
E|---------------- 2------ 2------|---------------------- 2--------|
http://classicalguitartablature.blogspot.com/
E|--------------------------------|------ 3------ 2------ 0--------|
B| 0------ 0---------- 3------ 3--|-------------- 3-------------- 3|
G| 0---- 0------------ 2------ 2--|---- 0------ 0------------------|
D|---- 0------ 0------ 4------ 4--|-- 0---------------- 0------ 0--|
A|---------------- 5------ 5------|------------------------------ 2|
E| 3---------------------------- 3|---------------- 3--------------|
http://classicalguitartablature.blogspot.com/
E|-------------- 0----------------|--------------------------------|
B|------ 0------ 0------ 0--------|------------ 0------------------|
G| 2-- 2-------- 1------ 1--------|------ 0 2------ 0------ 2------|
D|-- 0------ 0------ 0-------- 0--|-- 2---------------- 4------ 0--|
A|--------------------------------| 0-------------- 5--------------|
E|---------------- 0--------------|------------------------ 2------|
http://classicalguitartablature.blogspot.com/
E|--------------------------------|-------- 3---- 2------ 0--------|
B|-------- 0---- 3---- 3------ 3--|-------------- 3------ 3------ 3|
G| 0---- 0------ 5---- 5------ 5--|------ 0---- 0---------------- 2|
D|-- 0-------- 0 4---- 4------ 4--|---- 0-------------- 0------ 0--|
A|---------------- 5------ 5------|------------------------------ 2|
E| 3------------------------------| 3-------------- 3--------------|
http://classicalguitartablature.blogspot.com/
E|--------------------------------|--------------------------------|
B|------ 0------------------------|---------- 0--------------------|
G|---- 2-------------- 2---- 2----|---- 0 2------ 0------ 2--------|
D|-- 0------ 0-------- 0------ 0--|-- 2-------------- 4-------- 0--|
A|------------------------------ 0|-------------- 5----------------|
E|---------------- 2------ 2------|---------------------- 2--------|
http://classicalguitartablature.blogspot.com/
E|--------------------------------|------ 3------ 2------ 0--------|
B| 0------ 0---------- 3------ 3--|-------------- 3-------------- 3|
G| 0---- 0------------ 2------ 2--|---- 0------ 0------------------|
D|---- 0------ 0------ 4------ 4--|-- 0---------------- 0------ 0--|
A|---------------- 5------ 5------|------------------------------ 2|
E| 3---------------------------- 3|---------------- 3--------------|
http://classicalguitartablature.blogspot.com/
E|-------------- 0----------------|--------------------------------|
B|------ 0------ 0------ 0--------|------------ 0------------------|
G| 2-- 2-------- 1------ 1--------|------ 0 2------ 0------ 2------|
D|-- 0------ 0------ 0-------- 0--|-- 2---------------- 4------ 0--|
A|--------------------------------| 0-------------- 5--------------|
E|---------------- 0--------------|------------------------ 2------|
http://classicalguitartablature.blogspot.com/
E|--------------------------------|--------------------------------|
B|------ 0------------------------|------------ 0------------------|
G| 0-- 0-------------- 1------ 1--|---- 0-- 2------ 0------ 2------|
D|-- 0-------- 0------ 0------ 0--|-- 2---------------- 4------ 0--|
A|------------------------------ 0|---------------- 5--------------|
E| 3-------------- 0------ 0------|------------------------ 2------|
http://classicalguitartablature.blogspot.com/
E|--------------------------------|--------------------------------|
B| 0------ 0----------------------|------------ 0------------------|
G|------ 0------------ 4------ 4--|------ 0 2---- 0------ 2--------|
D|---- 0------ 0------ 3------ 3--|-- 2---------------- 4------ 0--|
A|------------------------------ 0|-------------- 5----------------|
E| 3-------------- 4------ 4------|------------------------ 2------|
http://classicalguitartablature.blogspot.com/
E|--------------------------------|--------------------------------|
B|--------------------------------|--------------------------------|
G| 0------ 0 0-- 0----------------|--------------------------------|
D| 0------ 0 0-- 0----------------|--------------------------------|
A|--------------------------------|--------------------------------|
E| 3------ 3-- 3-- 3--------------|--------------------------------|
http://classicalguitartablature.blogspot.com/

0 ความคิดเห็น:

แสดงความคิดเห็น