To celebrate the anniversary, I am giving you (finally...) : iPhone LickByNeck !!!!!!

Sometimes When We Touch (BASIC)

Dan Hill's tune fingerstyle chord melody guitar BASIC arrangement played in the key of C.

http://classicalguitartablature.blogspot.com/
Sometimes When We Touch - Dan Hill - BASIC ARRANGEMENT played in the key of C
http://classicalguitartablature.blogspot.com/
E|--------------------------------|--------------------------------|
B| 0---- 1-- 3---- 3--------------|---- 0-- 1---- 1-- 0-------- 0 0|
G| 0-- 0------ 0-- 5 5-- 4 4------| 2-- 0------ 0 2---- 2 0------ 0|
D|-- 0------------ 3---------- 3--|-- 2---------- 1---------- 1-- 0|
A|-------------- 5----------------| 3------------ 3----------------|
E| 3---------------------- 3------|------------------------------ 3|
http://classicalguitartablature.blogspot.com/
E|---- 3---------- 0--------------|-- 5-- 2-- 0--------------------|
B|-- 3---- 3---- 3-------- 3-- 3 3|------ 3---- 3-- 3---- 3--------|
G|-- 0------ 0-- 0------ 0-- 0-- 0|-------------------- 2---- 2-- 4|
D|------------ 0 2---- 2----------| 4---------------- 4-------- 4--|
A|-------------- 3-------------- 5|------ 3-------- 2--------------|
E|--------------------------------|--------------------------------|
http://classicalguitartablature.blogspot.com/

http://classicalguitartablature.blogspot.com/
E|------------------ 2-- 3--------|---- 0-- 0----------------------|
B| 0-- 3-- 3 3---- 5-------- 5----|------------ 3---------- 3---- 3|
G| 0------ 4 4-- 4 2---------- 2 2|-- 2------------------ 0-- 0----|
D| 0 0-- 0 5-- 5---------------- 2|-- 2---------------- 4------ 4--|
A|-------- 5------ 4--------------| 0---------------- 5------------|
E| 0------------------------------|--------------------------------|
http://classicalguitartablature.blogspot.com/
E| 8 8-- 8-- 7-- 7-- 5------------| 7 7------ 7------------------ 0|
B| 5 5-- 5-- 5------------------10| 8 8--10------ 8---- 8-------- 1|
G| 5 5-- 5-- 5-- 5---- 5------ 7--| 7 7-- 7---------- 7-------- 7 0|
D|-------------------------- 7----|------ 7---- 9---- 9------ 9----|
A| 0-------------- 5---- 7 9------|10------ 9------ 7------------ 3|
E|--------------------------------|----------------------10--------|
http://classicalguitartablature.blogspot.com/
E| 0---- 2 3-------- 3-------- 3--|------ 7-- 5-- 5----------------|
B| 1-- 0-------- 3---------- 3----| 8 8 8 8-- 8 8 5---------- 5----|
G| 0-- 0-------- 0------ 0--------| 5 5 5 5-- 5 5 5------ 5---- 5--|
D|---------------------- 0--------| 5 5 5------ 5------ 5----------|
A|-------- 3------ 2--------------| 0------------ 5----------------|
E|--------------------------------|--------------------------------|
http://classicalguitartablature.blogspot.com/
E| 7 7-- 7---------------------- 3|--------------------------------|
B| 8 8-- 8-- 8-- 1------ 1--------|1010--10-- 7---- 3---- 3---- 5 7|
G| 7 7-- 7-- 7-------- 0---- 0----| 7 7-- 7---- 9------ 2---- 4----|
D|---------- 9------ 2-------- 2--| 7 7-- 7---------- 4------ 4----|
A|10-------------- 3--------------|---------------- 2------ 6------|
E|--------------------------------|10------ 8----------------------|
http://classicalguitartablature.blogspot.com/
E| 3 3-- 3------------------------|---------------------------- 5--|
B| 0 0-- 0-- 0------------ 5---- 3|------ 3------ 3-------- 5 8----|
G| 0 0-- 0------ 2---- 2----------|---- 0------ 0------ 7-- 5------|
D|-------- 0-------- 2------------|-- 4------ 4------ 7 7-- 5------|
A|-------- 5------ 4--------------| 5------ 3----------------------|
E| 0------------------------------|---------------- 7------ 5------|
http://classicalguitartablature.blogspot.com/
E| 7 7-- 7---------------------- 3|--------------------------------|
B| 8 8-- 8-- 8-- 1------ 1--------|1010--10-- 7-- 3------ 3--------|
G| 7 7-- 7-- 7-------- 0---- 0----| 7 7-- 7---- 9------ 2---- 4-- 4|
D|---------- 9------ 2-------- 2--| 7 7-- 7---------- 4------------|
A|10-------------- 3--------------|-------------- 2----------------|
E|--------------------------------|10------ 8----------------------|
http://classicalguitartablature.blogspot.com/
E|------------ 5 7-- 5---------- 3|------------------------------ 3|
B|-- 8------ 8-- 5-- 5-- 8-- 8-- 3|------ 3-------------- 3--------|
G| 5-- 5---------- 5 5-- 5-- 5----| 0-------- 0-- 0---- 0---- 0----|
D| 5---- 5-------------- 5-- 5----|-- 0-------- 0---- 0-------- 0--|
A| 0-------------- 5--------------|--------------------------------|
E|--------------------------------| 3-------------- 3--------------|
http://classicalguitartablature.blogspot.com/
E| 5 5-- 5---- 7---- 5---------- 5|-- 5-- 5-- 5---- 3---------- 3 3|
B| 5 5-- 5-- 8 5---- 5---------- 8|-- 5 5 5-- 5 8 3---- 3-------- 0|
G| 5 5-- 5-- 5 5---- 5------ 5----| 5 5 5 5-- 5 5 0-- 0------ 2-- 0|
D|---------- 5---------- 5-- 5----|---- 5------ 5-- 0-------- 0----|
A| 5------ 5------ 5------ 5------| 5------------------------------|
E|--------------------------------|-------------- 3------ 2--------|
http://classicalguitartablature.blogspot.com/
E| 3---- 3-- 3 3 2----------------| 0------------------------------|
B|-- 0-- 0-- 0 0 3-- 5 3-------- 3| 3 3-- 3-- 3-- 3------------ 0 0|
G|-- 0-- 0-- 0 0 2-- 2 2---- 2 4--| 0 0-- 0-- 0-- 0-------------- 0|
D|------------------ 4 4-- 4------|-- 2-- 2-- 2-- 4-------------- 0|
A|---------------- 2--------------| 3-------------- 5--------------|
E| 0------ 0----------------------|------------------------------ 3|
http://classicalguitartablature.blogspot.com/
E|---- 3---------- 0--------------|-- 5-- 2-- 0--------------------|
B|-- 3---- 3---- 3-------- 3-- 3 3|------ 3---- 3-- 3---- 3--------|
G|-- 0------ 0-- 0------ 0-- 0-- 0|-------------------- 2---- 2-- 4|
D|------------ 0 2---- 2----------| 4---------------- 4-------- 4--|
A|-------------- 3-------------- 5|------ 3-------- 2--------------|
E|--------------------------------|--------------------------------|
http://classicalguitartablature.blogspot.com/
E|------------------ 2-- 3--------|---- 0-- 0----------------------|
B| 0-- 3-- 3 3---- 5-------- 5----|------------ 3---------- 3---- 3|
G| 0------ 4 4-- 4 2---------- 2 2|-- 2------------------ 0-- 0----|
D| 0 0-- 0 5-- 5---------------- 2|-- 2---------------- 4------ 4--|
A|-------- 5------ 4--------------| 0---------------- 5------------|
E| 0------------------------------|--------------------------------|
http://classicalguitartablature.blogspot.com/
E| 8 8-- 8-- 7-- 7-- 5------------| 7 7------ 7------------------ 0|
B| 5 5-- 5-- 5------------------10| 8 8--10------ 8---- 8-------- 1|
G| 5 5-- 5-- 5-- 5---- 5------ 7--| 7 7-- 7---------- 7-------- 7 0|
D|-------------------------- 7----|------ 7---- 9---- 9------ 9----|
A| 0-------------- 5---- 7 9------|10------ 9------ 7------------ 3|
E|--------------------------------|----------------------10--------|
http://classicalguitartablature.blogspot.com/
E| 0---- 2 3-------- 3-------- 3--|------ 7-- 5-- 5----------------|
B| 1-- 0-------- 3---------- 3----| 8 8 8 8-- 8 8 5---------- 5----|
G| 0-- 0-------- 0------ 0--------| 5 5 5 5-- 5 5 5------ 5---- 5--|
D|---------------------- 0--------| 5 5 5------ 5------ 5----------|
A|-------- 3------ 2--------------| 0------------ 5----------------|
E|--------------------------------|--------------------------------|
http://classicalguitartablature.blogspot.com/
E| 7 7-- 7---------------------- 3|--------------------------------|
B| 8 8-- 8-- 8-- 1------ 1--------|1010--10-- 7---- 3---- 3---- 5 7|
G| 7 7-- 7-- 7-------- 0---- 0----| 7 7-- 7---- 9------ 2---- 4----|
D|---------- 9------ 2-------- 2--| 7 7-- 7---------- 4------ 4----|
A|10-------------- 3--------------|---------------- 2------ 6------|
E|--------------------------------|10------ 8----------------------|
http://classicalguitartablature.blogspot.com/
E| 3 3-- 3------------------------|---------------------------- 5--|
B| 0 0-- 0-- 0------------ 5---- 3|------ 3------ 3-------- 5 8----|
G| 0 0-- 0------ 2---- 2----------|---- 0------ 0------ 7-- 5------|
D|-------- 0-------- 2------------|-- 4------ 4------ 7 7-- 5------|
A|-------- 5------ 4--------------| 5------ 3----------------------|
E| 0------------------------------|---------------- 7------ 5------|
http://classicalguitartablature.blogspot.com/
E| 7 7-- 7---------------------- 3|--------------------------------|
B| 8 8-- 8-- 8-- 1------ 1--------|1010--10-- 7-- 3------ 3--------|
G| 7 7-- 7-- 7-------- 0---- 0----| 7 7-- 7---- 9------ 2---- 4-- 4|
D|---------- 9------ 2-------- 2--| 7 7-- 7---------- 4------------|
A|10-------------- 3--------------|-------------- 2----------------|
E|--------------------------------|10------ 8----------------------|
http://classicalguitartablature.blogspot.com/
E|------------ 5--------------10--|10------------------------------|
B|-- 8------ 8----1210------------|---------------- 3--------------|
G| 5-- 5----------12----12--------|------------ 7-- 5 5-- 4 4------|
D| 5---- 5------10----------------| 9----10-------- 3---------- 3--|
A| 0------------------------------|10------------ 5----------------|
E|--------------10----------------|------------------------ 3------|
http://classicalguitartablature.blogspot.com/
E|--------------------------------|--------------------------------|
B|---- 0-- 1------ 1 0------------|-------------- 0----------------|
G| 2-- 0------ 0 2------ 2 0------|-------------- 0----------------|
D|-- 2---------- 1------------ 1--| 0------------ 0----------------|
A| 3------------ 3----------------|------------ 2------------------|
E|--------------------------------|--------------------------------|
http://classicalguitartablature.blogspot.com/

0 ความคิดเห็น:

แสดงความคิดเห็น