To celebrate the anniversary, I am giving you (finally...) : iPhone LickByNeck !!!!!!

Somewhere Out There (BASIC)

Classic animation tune fingerstyle chord melody guitar BASIC arrangement played in the key of C.

http://classicalguitartablature.blogspot.com/
Somewhere Out There - BASIC ARRANGEMENT played in the key of C

E|---------------- 3--------------|------ 0------ 3----------------|
B|---------- 1-------- 1----------|------ 1-------------------- 1--|
G|-------- 2-------------- 2------|-------------- 0-------- 0------|
D|-- 3------------------------ 3--|---- 2------ 2------ 2----------|
A|--------------------------------| 3------------------------------|
E| 3------------------------------|-------------- 0----------------|
http://classicalguitartablature.blogspot.com/
E| 0------------------------------| 0------ 3------10-- 8------ 5--|
B| 1---------- 1-- 1---------- 3--| 1------ 1------ 8-- 8------ 5--|
G| 2------ 2------ 0------ 0------| 0-------------- 7-- 7 7---- 5--|
D|---- 3-------------- 0----------|---- 2------ 2------------------|
A|--------------------------------| 3---------------------------- 8|
E| 1-------------- 3--------------|---------------- 0--------------|
http://classicalguitartablature.blogspot.com/
http://classicalguitartablature.blogspot.com/
E|------------------------------ 5|----------------10------ 7------|
B|------------ 5-------- 5------ 6|------------ 6-- 8----------10--|
G|------ 5---------- 5---------- 5|-------- 5------ 7-- 7----------|
D|-- 7------------ 7---------- 7--|---- 7--------------------------|
A|--------------------------------| 5-------------- 8--------------|
E|--------------------------------|--------------------------------|
http://classicalguitartablature.blogspot.com/
E| 3---------- 5-------------- 0--|--------------------------------|
B| 0-------------- 1------ 3------| 6------ 8----10--------10------|
G| 0------ 0------ 2--------------| 5------ 5---- 9------------ 9--|
D|---- 0-------------- 2----------|---- 7---- 5--10----10----------|
A|---------------- 0--------------| 5------ 7------ 8--------------|
E| 0------------------------------|--------------------------------|
http://classicalguitartablature.blogspot.com/
E|--------------------------------|------ 0------ 3----------------|
B| 3------------------------------|------ 1------ 1------------10--|
G| 2------ 2-------------- 1------|-------------- 0-------- 0-- 9--|
D|---- 3------ 3------ 3------ 3--|---- 2------ 2------ 2------10--|
A|--------------------------------| 3---------------------------- 8|
E| 3-------------- 3--------------|---------------- 0--------------|
http://classicalguitartablature.blogspot.com/
E|------------------------------ 0|------ 3------10-- 8-------- 5--|
B|---- 8------10------------ 3-- 1|------ 1------ 8-- 8------ 5----|
G|-- 9------------------ 0------ 0|-------------- 7-- 7-------- 5--|
D|------10---------- 0------------|---- 2---- 2---------- 7--------|
A|------------------------------ 3|------------------------------ 8|
E|-------------- 3----------------|---------------- 0--------------|
http://classicalguitartablature.blogspot.com/
E|--------------------------------| 5---------------------------- 3|
B|--------------------------------| 6---------- 6-- 0-- 1---- 3-- 0|
G|-------- 5-------------- 5------| 5---- 5-------- 0------------ 0|
D|---- 7------ 7------ 7------ 7--|---- 7-------- 0----------------|
A|---------------- 8--------------| 5------------------------------|
E|--------------------------------|-------------- 1-------------- 0|
http://classicalguitartablature.blogspot.com/
E|--------------------------------|------ 0------------------------|
B|------------ 1------------ 1-- 6|------ 1-- 3-- 1-------- 0---- 1|
G|------ 0-------------- 2--------| 5---- 0-- 0-- 2-------- 0---- 0|
D|-- 0-------------- 2------------|---- 7------ 2------ 3------ 0--|
A|-------------- 0-------------- 5|------------------------------ 3|
E|--------------------------------|-------- 0---- 1-------- 3------|
http://classicalguitartablature.blogspot.com/
E|-------------------------- 8----|---- 8------ 8 7-- 7---- 7------|
B|------------ 1------------------|10--10--10--10-- 8-- 8-- 8 8----|
G|------ 0-------------- 9--------| 9-- 9-- 9-- 9-- 7-- 7-- 7 7-- 5|
D|---- 2--------------10----------|10------10---------------- 9----|
A|--------------------------------| 8-------------- 8------------ 8|
E|---------------- 8--------------|--------------------------------|
http://classicalguitartablature.blogspot.com/
E| 5-- 5 5-------------------- 8--|---- 8---- 8--10--10--10-- 7-- 8|
B| 5-------- 6---- 8--------------|10--10--10--10-- 8 8-- 8-- 8--10|
G|---- 5 5---------------- 7------| 9-- 9-- 9 9---- 7-- 7 7-- 7----|
D|---------- 7-------- 9----------|10------10----------------------|
A|---------------- 8--------------| 8-------------- 8--------------|
E|--------------------------------|--------------------------------|
http://classicalguitartablature.blogspot.com/
E|-- 8---- 8---- 7----------------|--------------------------------|
B|----10--1010-- 8----------------|---- 4---- 4---- 3-- 3-- 3------|
G| 9-- 9-- 9 9-- 7-------- 7-- 8--| 5---- 5------ 3------------ 3 1|
D|----------10-------- 9----------| 5------------ 3-------------- 1|
A| 8-------------- 8--------------|--------------------------------|
E|--------------------------------| 4------------ 4-------------- 4|
http://classicalguitartablature.blogspot.com/
E|--------------------------------|--------------------------------|
B| 1 1-- 1-------------------- 4--|---- 4------ 4 6-- 6-- 6-- 3-- 6|
G|---------- 1---- 3------ 3------| 5---- 5------ 3-- 3-- 3-- 3-- 3|
D|-------------------- 3----------| 5------------ 3-- 3-- 3-- 3-- 3|
A|--------------------------------|--------------------------------|
E|---------------- 4--------------| 4-------------- 4--------------|
http://classicalguitartablature.blogspot.com/
E|-------------- 3----------------|--------------------------------|
B|-- 3---- 6-- 3 1------------ 1--|------------ 1---------- 1------|
G|-- 3---- 3-- 3 2------ 2--------|------ 2---------------- 2------|
D|-- 3---- 3-- 3------ 3----------|---- 3-------------- 3------ 3--|
A|--------------------------------|--------------------------------|
E| 4-------------- 3--------------| 3------------ 3----------------|
http://classicalguitartablature.blogspot.com/
E|------ 0------ 3----------------| 0------------------------------|
B|------ 1-------------------- 1--| 1---------- 1-- 1---------- 3--|
G|-------------- 0-------- 0------| 2------ 2------ 0------ 0------|
D|---- 2------ 2------ 2----------|---- 3-------------- 0----------|
A| 3------------------------------|--------------------------------|
E|-------------- 0----------------| 1-------------- 3--------------|
http://classicalguitartablature.blogspot.com/
E| 0------ 3------10-- 8------ 5--|--------------------------------|
B| 1------ 1------ 8-- 8------ 5--|------------ 5-------- 5--------|
G| 0-------------- 7-- 7 7---- 5--|------ 5---------- 5------------|
D|---- 2------ 2------------------|-- 7------------ 7---------- 7--|
A| 3---------------------------- 8|--------------------------------|
E|---------------- 0--------------|--------------------------------|
http://classicalguitartablature.blogspot.com/
E| 5---------------------------- 3|--------------------------------|
B| 6---------- 6-- 0-- 1---- 3-- 0|---------- 1---------- 1-- 0----|
G| 5---- 5-------- 0--------------|------ 0-------------- 2-- 2----|
D|---- 7-------- 0----------------|-- 0------ 2------ 2------------|
A| 5------------------------------|-------------- 0----------------|
E|-------------- 1-------------- 0|--------------------------------|
http://classicalguitartablature.blogspot.com/
E|------ 1------------------------|------ 3---------------- 3-- 3--|
B|------ 1------------------------| 0------------------------------|
G| 2---------------------- 2------| 0-------------------------- 4--|
D|-- 3-------- 3-------------- 3--|---- 0---- 0--------------------|
A|--------------------------------|--------------------------------|
E| 1------------------------------| 3------------------------------|
http://classicalguitartablature.blogspot.com/
E|---- 3---- 3-- 2------ 2------ 0|-- 0-- 0-------------------- 3--|
B| 5-- 5 5---- 5 3---- 3 3-- 3-- 1|------ 1-- 1-- 3----------------|
G| 4---- 4---- 4 2---- 2 2---- 2 0|-- 0-- 0-- 0-- 2------ 2--------|
D| 5---- 5------------ 4---- 4----|---------- 2-------- 2----------|
A| 3------------ 3-------------- 3|---------------- 3--------------|
E|--------------------------------|--------------------------------|
http://classicalguitartablature.blogspot.com/
E|--------------------------------|--------------------------------|
B| 5-- 8-- 5 8-- 6-- 6-- 6--------| 5-- 5-- 5------ 3---------- 3--|
G| 5-- 5-- 5 5---- 5 5-- 5---- 7--| 5---------- 5-- 2------ 2------|
D| 5-- 5-- 5-- 5-- 5 5-- 5---- 5 5|-------------------- 2----------|
A|--------------------------------|--------------------------------|
E| 6-------------- 6------------ 6|---------------- 0--------------|
http://classicalguitartablature.blogspot.com/
E|--------------------------------|--------------------------------|
B|-------- 3------ 3--------------|---------------- 2--------------|
G|---- 2---------- 1--------------|---------------- 2--------------|
D| 2---------- 2 2----------------|-------------- 2----------------|
A|--------------------------------|-------------- 0----------------|
E|-------------- 0----------------|--------------------------------|
http://classicalguitartablature.blogspot.com/

0 ความคิดเห็น:

แสดงความคิดเห็น