To celebrate the anniversary, I am giving you (finally...) : iPhone LickByNeck !!!!!!

Summer Of 69' (BASIC)

Bryan Adams' tune fingerstyle chord melody guitar BASIC arrangement played in the key of D.
You need to install the Flash plugin - http://www.webestools.com/

http://classicalguitartablature.blogspot.com/
Summer Of 69 - Bryan Adams - BASIC ARRANGEMENT played in the key of D
http://classicalguitartablature.blogspot.com/
E| 0---------- 2---------- 3------|---- 2-------- 0------ 2--------|
B|---- 3---------- 3-------- 3----|------ 3---------- 3------ 3----|
G|-------- 2---------- 2----------| 2-------- 2--------------------|
D| 0------------------------------|--------------------------------|
A|--------------------------------|--------------------------------|
E|--------------------------------|--------------------------------|
http://classicalguitartablature.blogspot.com/
E|--------------------------------|--------------------------------|
B| 0---------- 2---------- 3------|---- 2---------- 0------ 2------|
G|---- 2---------- 2---------- 2--|-------- 2---------- 2------ 2--|
D|-------- 2---------- 2----------| 2---------- 2------------------|
A| 0------------------------------|--------------------------------|
E|--------------------------------|--------------------------------|
http://classicalguitartablature.blogspot.com/

http://classicalguitartablature.blogspot.com/
E| 0---------- 2---------- 3------|---- 2-------- 0-------- 2------|
B|---- 3---------- 3---------- 3--|-------- 3---------- 3------ 3--|
G|-------- 2---------- 2----------| 2---------- 2------------------|
D| 0------------------------------|--------------------------------|
A|--------------------------------|--------------------------------|
E|--------------------------------|--------------------------------|
http://classicalguitartablature.blogspot.com/
E|--------------------------------|--------------------------------|
B| 0---------- 2---------- 3------|---- 2-------- 0------ 2--------|
G|---- 2---------- 2---------- 2--|-------- 2-------- 2-------- 2--|
D|-------- 2---------- 2----------| 2-------- 2--------------------|
A| 0------------------------------|--------------------------------|
E|--------------------------------|--------------------------------|
http://classicalguitartablature.blogspot.com/
E|--------------------------------|------------ 2------ 0----------|
B|------------ 3------ 3------ 3--|---- 3------ 3------ 3-- 3------|
G|---- 2------ 2------ 2------ 2--|---- 2------ 2------ 2-- 2------|
D|---- 4------ 4------ 4------ 4--|---- 4------------------ 4-- 4--|
A| 5---------- 5-------------- 5--|------------ 5---------------- 0|
E|--------------------------------|--------------------------------|
http://classicalguitartablature.blogspot.com/
E|---------------------------- 2--|--------------------------------|
B|------------ 5------ 5------ 5--|---- 5------ 5------------------|
G|---- 2------ 2------ 2------ 2--|---- 2------ 2------------ 2----|
D|---- 2------ 2------ 2----------|---- 2------ 2------ 2------ 2--|
A|------------ 0-------------- 0--|------------ 0-------------- 0--|
E|--------------------------------|--------------------------------|
http://classicalguitartablature.blogspot.com/
E|--------------------------------|------------ 2------ 0----------|
B|------------ 3------ 3------ 3--|---- 3------ 3------ 3-- 3------|
G|---- 2------ 2------ 2------ 2--|---- 2------ 2------ 2-- 2------|
D|---- 4------ 4------ 4------ 4--|---- 4------------------ 4-- 4--|
A| 5---------- 5-------------- 5--|------------ 5---------------- 0|
E|--------------------------------|--------------------------------|
http://classicalguitartablature.blogspot.com/
E|---------------------------- 2--|--------------------------------|
B|------------ 5------ 5------ 5--|---- 5------ 5------------------|
G|---- 2------ 2------ 2------ 2--|---- 2------ 2------------ 2----|
D|---- 2------ 2------ 2----------|---- 2------ 2------ 2------ 2--|
A|------------ 0-------------- 0--|------------ 0-------------- 0 2|
E|--------------------------------|--------------------------------|
http://classicalguitartablature.blogspot.com/
E|--------------------------------|--------------------------------|
B|------------ 3------ 3-- 3-- 3 2|---- 3------ 5------------------|
G|---- 4------ 4------ 4-- 4-- 4--| 2-- 2------ 2---------- 2------|
D|---- 4------ 4------ 4-- 4-- 4--| 2-- 2------ 2------ 2------ 2--|
A|------------ 2---------- 2------| 0---------- 0---------------- 5|
E|--------------------------------|--------------------------------|
http://classicalguitartablature.blogspot.com/
E|------------ 2------ 2-- 2-- 2--| 5------ 3----------------------|
B|------------ 3------ 3-- 3-- 3--| 3-------------- 3---- 5--------|
G|---- 2------ 2------ 2-- 2-- 2--| 4-- 4---------- 4---- 4--------|
D|---- 4--------------------------|------------ 5------ 5------ 5--|
A|------------ 5------------------|------------------------------ 2|
E|------------------------ 2------| 3-------------- 3--------------|
http://classicalguitartablature.blogspot.com/
E|--------------------------------|--------------------------------|
B|------------ 3------ 3-- 3-- 3 2|---- 3------ 5------------------|
G|---- 4------ 4------ 4-- 4-- 4--| 2-- 2------ 2---------- 2------|
D|---- 4------ 4------ 4-- 4-- 4--| 2-- 2------ 2------ 2------ 2--|
A|------------ 2---------- 2------| 0---------- 0---------------- 5|
E|--------------------------------|--------------------------------|
http://classicalguitartablature.blogspot.com/
E|------------ 2------ 2-- 2-- 2--| 5------ 3----------------------|
B|------------ 3------ 3-- 3-- 3--| 3-------------- 3---- 5--------|
G|---- 2------ 2------ 2-- 2-- 2--| 4-- 4---------- 4---- 4--------|
D|---- 4--------------------------|------------ 5------ 5------ 5--|
A|------------ 5------------------|------------------------------ 2|
E|------------------------ 2------| 3-------------- 3--------------|
http://classicalguitartablature.blogspot.com/
E|--------------------------------|--------------------------------|
B|------------ 3------ 3-- 3-- 3 2|-------- 3------ 5------ 3------|
G|---- 4------ 4------ 4-- 4-- 4--| 2------ 2------ 2------ 2------|
D|---- 4------ 4------ 4-- 4-- 4--| 2------ 2------ 2------ 2------|
A|------------ 2---------- 2------| 0------------------------------|
E|--------------------------------|--------------------------------|
http://classicalguitartablature.blogspot.com/
E|--------------------------------|--------------------------------|
B|------------ 7---------- 8------|---- 7-------- 5------ 7--------|
G| 7---------- 7---------- 7------|---- 7-------- 7-------- 7------|
D| 7-- 7------ 7------ 7---- 7----|---- 7------ 7------ 7------ 7--|
A| 5---------- 5---------- 5------|---- 5---------- 5--------------|
E|--------------------------------|--------------------------------|
http://classicalguitartablature.blogspot.com/
E|--------------------------------|------------------------------ 5|
B| 0---------- 2---------- 3------|-- 3---- 3 3-- 3-- 3-- 3------ 7|
G| 2---------- 2---------- 2------|---- 2 2-- 2-- 2-- 2-- 2------ 7|
D|---- 2------ 2------ 2------ 2--|---- 2 2---- 2-- 2 2---- 2------|
A| 0---------- 0---------- 0------|---- 0------------------------ 5|
E|--------------------------------|--------------------------------|
http://classicalguitartablature.blogspot.com/
E|--------------------------------|------------------------------ 5|
B|---------------------- 8--------|-- 7---------- 5------ 7------ 2|
G|------ 7-- 7------ 7------ 7----|-------- 7-------- 7------ 7-- 4|
D|-- 7-- 7-- 7---- 7------------ 7|---------- 7--------------------|
A|--------------------------------|-------------- 5-------------- 0|
E|--------------------------------|--------------------------------|
http://classicalguitartablature.blogspot.com/
E|---------- 5-------- 5-- 5-- 5--| 5-- 5 5-- 5-- 5------ 5-- 5----|
B|---------- 2-------- 2-- 3-- 3--| 3 2-- 2-- 2-- 2-- 2-- 2-- 2----|
G|-- 4------ 2-------- 2-- 2-- 2--| 2-- 2-- 2 2-- 4-- 4-- 2-- 2----|
D|--------------------------------|--------------------------------|
A|------------ 0---------- 0------| 0-- 0-- 0-- 0-- 0 0---- 0-- 0--|
E|--------------------------------|------------------------------ 1|
http://classicalguitartablature.blogspot.com/
E|------------ 1---- 1---- 1-- 1--|------------ 5-------------- 3--|
B|-- 1-------- 1---- 1---- 1-- 1--| 6-- 6------ 6------ 6------ 5--|
G|-- 2-------- 2---- 2---- 2-- 2--| 7-- 7------ 7------ 7------ 5--|
D|-- 3----------------------------| 8-- 8-------------- 8----------|
A|--------------------------------|--------------------------------|
E|------------ 1---------- 1------| 6---------- 6------------------|
http://classicalguitartablature.blogspot.com/
E|---- 3------ 3------ 3------ 1--|---- 1---- 1------ 1------------|
B|---- 5------ 5------ 5------ 1--|---- 1---- 1------ 1-------- 6--|
G|---- 5------ 5-------------- 0--|---- 0---- 0-------- 0------ 5--|
D|--------------------------------|---------------------------- 7--|
A| 3-------------- 3--------------|--------------------------------|
E|--------------------------------| 0------------ 0----------------|
http://classicalguitartablature.blogspot.com/
E|-------------------- 5 5---- 5--|------------------------ 5------|
B|------------ 6------ 6-- 6-- 6--|---- 8 6---- 6---- 8---- 6--10--|
G|---- 5------ 5------ 5-- 5-- 7--|---- 7-- 7-- 7---- 7-------- 9--|
D|---- 7------ 7------------------|----------------------------10--|
A| 8-------------- 8--------------|--------------------------------|
E|--------------------------------| 6------------ 6----------------|
http://classicalguitartablature.blogspot.com/
E|--------------------------------|-------------------------- 5----|
B|---- 8------ 8------10----10----|---- 8---- 8------ 8---------- 5|
G|---- 9------ 9------ 9---- 9----|---- 9---- 9------ 9------------|
D|----10------10------10------10--|----------10------10------------|
A|--------------------------------|------------------------------ 5|
E| 8-------------- 8--------------| 8------------ 8----------------|
http://classicalguitartablature.blogspot.com/
E|--------------------------------|--------------------------------|
B|------------ 7-------- 8--------|-- 7---------- 5------ 7------ 0|
G|-- 7---------- 7---------- 7----|------ 7---------- 7------ 7----|
D|------ 7---------- 7---------- 7|---------- 7--------------------|
A|--------------------------------|------------------------------ 0|
E|--------------------------------|--------------------------------|
http://classicalguitartablature.blogspot.com/
E|--------------------------------|--------------------------------|
B|------------ 2---------- 3------|---- 2-------- 0------ 2--------|
G|-- 2------------ 2---------- 2--|-------- 2-------- 2-------- 2--|
D|------ 2------------ 2----------| 2---------- 2------------------|
A|--------------------------------|--------------------------------|
E|--------------------------------|--------------------------------|
http://classicalguitartablature.blogspot.com/
E| 0---------- 2---------- 3------|---- 2-------- 0-------- 2------|
B|---- 3---------- 3---------- 3--|-------- 3---------- 3------ 3--|
G|-------- 2---------- 2----------| 2---------- 2------------------|
D| 0------------------------------|--------------------------------|
A|--------------------------------|--------------------------------|
E|--------------------------------|--------------------------------|
http://classicalguitartablature.blogspot.com/
E|--------------------------------|--------------------------------|
B| 0---------- 2---------- 3------|---- 2-------- 0------ 2--------|
G|---- 2---------- 2---------- 2--|-------- 2-------- 2-------- 2--|
D|-------- 2---------- 2----------| 2-------- 2------------------ 0|
A| 0------------------------------|--------------------------------|
E|--------------------------------|--------------------------------|
http://classicalguitartablature.blogspot.com/
E|---- 2--------------------------|--------------------------------|
B|-- 3----------------------------|--------------------------------|
G| 2------------------------------|--------------------------------|
D|--------------------------------|--------------------------------|
A|--------------------------------|--------------------------------|
E|--------------------------------|--------------------------------|
http://classicalguitartablature.blogspot.com/

0 ความคิดเห็น:

แสดงความคิดเห็น