To celebrate the anniversary, I am giving you (finally...) : iPhone LickByNeck !!!!!!

Times Of Your Life - Paul Anka

Paul Anka's classic tune fingerstyle chord melody guitar BASIC arrangement played in the key of C.

Times Of Your Life - Paul Anka - BASIC ARRANGEMENT played in the key of C
http://classicalguitartablature.blogspot.com/
E| 3-- 3---------------- 8-- 7-- 3|---- 3---------------- 8-- 7-- 3|
B| 1-- 1------------------------ 1|---- 1--------------------------|
G| 0-- 0--------------10-------- 0|---- 0------------10------------|
D|--------------------10----------|------------------10------------|
A| 3---------- 8---------------- 3|---------- 8--------------------|
E|--------------------------------|--------------------------------|
http://classicalguitartablature.blogspot.com/
E|---- 3---------------- 8-- 7-- 3|---- 3------------ 1------------|
B| 1-- 1------------------------ 1|---- 1------------ 1------------|
G| 0-- 0--------------10-------- 0|---- 0-------------- 2---- 0----|
D|--------------------10----------|------------------------ 3---- 2|
A| 3---------- 8---------------- 3|------------------------------ 3|
E|--------------------------------|---------- 1--------------------|
http://classicalguitartablature.blogspot.com/
E|------------------------------ 0|-------------------------- 3-- 5|
B|-------------- 1---------- 3 1--|---------------------- 1------ 5|
G|------ 0------ 2------ 2---- 1--|-------- 0-------------------- 5|
D|-- 2-------- 2 3---- 3------ 2--|---- 2------ 2------ 3----------|
A|--------------------------------| 3---------------------------- 3|
E|-------------- 1----------------|---------------- 1--------------|
http://classicalguitartablature.blogspot.com/
E|---------------------- 0-- 3-- 7|-------------------------- 3----|
B|---- 5------------ 3-- 1------ 8|---------------------- 1------ 8|
G|------------ 5---------------- 7|-- 7 9------ 9---- 2---------- 5|
D|-------- 5----------------------|-------- 7-------------------- 7|
A|--------------------------------|------------------------------ 5|
E|---------------- 1------------ 8|---------------- 1--------------|
http://classicalguitartablature.blogspot.com/
E|-------------------- 0---- 3----| 3 1-- 1-- 0------ 0------------|
B|-- 6-- 6---- 5-- 3---- 1--------| 1 1-- 1-------- 3---- 1--------|
G|-- 5-- 5-------- 0--------------| 2 2-- 2-------- 0-------- 0-- 2|
D|-- 7-- 7-------- 2------ 2------|---------------- 0------------ 2|
A|--------------------------------|------------------------------ 0|
E|---------------- 0--------------| 1-------------- 3------ 3------|
http://classicalguitartablature.blogspot.com/
E|--------------------------------|--------------------------------|
B|---- 1--------------------------|--------------------------------|
G|------------------ 2-- 2---- 0--|---- 7------------------ 0-- 0--|
D|-------- 2-------- 4------------| 7------ 7---------- 0-------- 2|
A|------------ 3 5----------------| 5---------------------------- 3|
E|--------------------------------|------------ 5-- 3--------------|
http://classicalguitartablature.blogspot.com/
E|------------------------------ 0|-------------------------- 3-- 5|
B|-------------- 1---------- 3 1--|---------------------- 1------ 5|
G|------ 0------ 2------ 2---- 1--|-------- 0-------------------- 5|
D|-- 2-------- 2 3---- 3------ 2--|---- 2------ 2------ 3----------|
A|--------------------------------| 3---------------------------- 3|
E|-------------- 1----------------|---------------- 1--------------|
http://classicalguitartablature.blogspot.com/
E|---------------------- 0-- 3-- 7|-------------------------- 3----|
B|---- 5------------ 3-- 1------ 8|---------------------- 1------ 8|
G|------------ 5---------------- 7|-- 7 9------ 9---- 2---------- 5|
D|-------- 5----------------------|-------- 7-------------------- 7|
A|--------------------------------|------------------------------ 5|
E|---------------- 1------------ 8|---------------- 1--------------|
http://classicalguitartablature.blogspot.com/
E|-------------------- 0---- 3----| 3 1-- 1-- 0------ 0------------|
B|-- 6-- 6---- 5-- 3---- 1--------| 1 1-- 1-------- 3---- 1--------|
G|-- 5-- 5-------- 0--------------| 2 2-- 2-------- 0-------- 0-- 2|
D|-- 7-- 7-------- 2------ 2------|---------------- 0------------ 2|
A|--------------------------------|------------------------------ 0|
E|---------------- 0--------------| 1-------------- 3------ 3------|
http://classicalguitartablature.blogspot.com/
E|--------------------------------|---------------- 1-------- 0----|
B|---- 1--------------------------|------------ 5-- 1-- 3-------- 1|
G|------------------ 2-- 2---- 0--|---- 7---------- 2------------ 0|
D|-------- 2-------- 4---------- 7|------ 7---------------------- 2|
A|------------ 3 5-------------- 5|------------------------------ 3|
E|--------------------------------|---------------- 3--------------|
http://classicalguitartablature.blogspot.com/
E|--------------------------------|--------------------------------|
B|---- 1--------------------------| 1-- 1------ 1-------------- 1--|
G|------ 0-- 5------------ 5------| 0-- 0------------------ 0------|
D|------ 2-- 6------------ 6------| 2---- 2---- 2------ 2----------|
A|--------------------------------| 3------ 0-- 0------------------|
E|------------ 6------ 6------ 6--|--------------------------------|
http://classicalguitartablature.blogspot.com/
E| 6------ 5 3---- 3-------- 3----|---- 5--------------------------|
B| 3-------------- 3---- 6--------| 8------------------------------|
G| 3---- 3-------- 3-- 3----------| 5---------------------- 7 5----|
D|---- 3------------ 3---------- 7|------ 7------------ 7----------|
A|---------------- 3------------ 8|--------------------------------|
E| 3------------------------------|---------- 8 7-- 6--------------|
http://classicalguitartablature.blogspot.com/
E| 3------ 2 0-- 0------------ 0--|---- 2--------------------------|
B| 0---- 0------ 3------ 3--------| 5---------------------------- 6|
G| 0-- 0-------- 4---- 4----------| 2---------------------- 0-- 2 5|
D|-------------------- 5----------|-------- 4---------- 0----------|
A|---------------- 0--------------| 5------------------------------|
E| 0------------------------------|------------ 5 4 3--------------|
http://classicalguitartablature.blogspot.com/
E|--------------------------------|---- 0--------------------------|
B|-------- 5 3---- 3------ 1-- 3--| 3---------------------------- 4|
G|---- 5---------------- 2--------| 0---------------------- 2------|
D| 3-- 3-------- 3---- 3----------|-------- 2---------- 2------ 2--|
A| 5------------------------------| 3------------------------------|
E|-------------- 3----------------|------------ 3 2 1--------------|
http://classicalguitartablature.blogspot.com/
E|--------------------------------|-------- 3----------------------|
B|---------- 4-- 5-------- 4-- 5--| 6------------------------------|
G| 3---- 3-------- 4-- 4----------| 5---------------------- 5------|
D|---- 1-------------- 2----------|---- 3------ 3------ 3------ 3--|
A| 3-------------- 4--------------| 5------------------------------|
E|--------------------------------|---------------- 3--------------|
http://classicalguitartablature.blogspot.com/
E|--------------------------------|------------------------------ 0|
B|--------------------------------|-------------- 1---------- 3 1--|
G|------------------------ 0-- 0--|------ 0------ 2------ 2---- 1--|
D|-------------------- 0-------- 2|-- 2-------- 2 3---- 3------ 2--|
A|10--10------------------------ 3|--------------------------------|
E|------10---- 3------------------|-------------- 1----------------|
http://classicalguitartablature.blogspot.com/
E|-------------------------- 3-- 5|---------------------- 0-- 3-- 7|
B|---------------------- 1------ 5|---- 5------------ 3-- 1------ 8|
G|-------- 0-------------------- 5|------------ 5---------------- 7|
D|---- 2------ 2------ 3----------|-------- 5----------------------|
A| 3---------------------------- 3|--------------------------------|
E|---------------- 1--------------|---------------- 1------------ 8|
http://classicalguitartablature.blogspot.com/
E|-------------------------- 3----|-------------------- 0---- 3----|
B|---------------------- 1------ 8|-- 6-- 6---- 5-- 3---- 1--------|
G|-- 7 9------ 9---- 2---------- 5|-- 5-- 5-------- 0--------------|
D|-------- 7-------------------- 7|-- 7-- 7-------- 2------ 2------|
A|------------------------------ 5|--------------------------------|
E|---------------- 1--------------|---------------- 0--------------|
http://classicalguitartablature.blogspot.com/
E| 3 1-- 1-- 0------ 0------------|--------------------------------|
B| 1 1-- 1-------- 3---- 1--------|---- 1--------------------------|
G| 2 2-- 2-------- 0-------- 0-- 2|------------------ 2-- 2---- 0--|
D|---------------- 0------------ 2|-------- 2-------- 4---------- 7|
A|------------------------------ 0|------------ 3 5-------------- 5|
E| 1-------------- 3------ 3------|--------------------------------|
http://classicalguitartablature.blogspot.com/
E|---------------- 1-------- 0----|---------------------- 8-- 7-- 3|
B|------------ 5-- 1-- 3----------| 1-- 1------------------------ 1|
G|---- 7---------- 2--------------| 0---- 0------------10-------- 0|
D|------ 7------------------------| 2---- 2------------10----------|
A|--------------------------------| 3---------- 8---------------- 3|
E|---------------- 3--------------|--------------------------------|
http://classicalguitartablature.blogspot.com/
E|---- 3---------------- 8-- 7-- 3|---- 3---------------- 8-- 7----|
B|---- 1--------------------------| 1-- 1--------------------------|
G|---- 0------------10------------| 0-- 0--------------10----------|
D|------------------10------------|--------------------10----------|
A|---------- 8--------------------| 3---------- 8---------------- 3|
E|--------------------------------|--------------------------------|
http://classicalguitartablature.blogspot.com/
E|-- 3----------------------------|--------------------------------|
B| 1------------------------------|--------------------------------|
G| 0------------------------------|--------------------------------|
D|--------------------------------|--------------------------------|
A|--------------------------------|--------------------------------|
E|--------------------------------|--------------------------------|
http://classicalguitartablature.blogspot.com/

0 ความคิดเห็น:

แสดงความคิดเห็น