To celebrate the anniversary, I am giving you (finally...) : iPhone LickByNeck !!!!!!

To Be With You (BASIC)

Mr.Big's classic tune fingerstyle chord melody guitar BASIC arrangement played in the key of E.

http://classicalguitartablature.blogspot.com/
To Be With You- BASIC ARRANGEMENT played in the key of E
http://classicalguitartablature.blogspot.com/
E|-- 4 4---------- 4--------------| 2---- 2-- 4---- 2-- 0 0--------|
B|-- 5 5------ 7 5 5--------------| 2 5-- 2-- 2---- 0-- 0 0--------|
G|-- 6 6------ 4 4 4---- 4---- 4--| 2 2-- 2-------- 1-- 1 1------ 1|
D|------------ 6 6---- 6------ 6--|-- 2-------- 2-------------- 2--|
A| 4---- 4------------------------| 0------ 0----------------------|
E|---------------- 0------ 0------|---------------- 0------ 0------|
http://classicalguitartablature.blogspot.com/
E|-- 9------------ 4--------------| 2---- 2-- 4---------------- 4--|
B|-- 9 9---------- 5--------------| 2 5-- 2-- 2---- 7-- 5 5------ 7|
G|-- 9-- 9--11 9-- 4-- 4------ 4--| 2 2-- 2-------- 4-- 4 4--------|
D|------------------ 6-------- 6--|-- 2-------- 2-- 6-- 6 6-- 6----|
A|--------------------------------| 0------ 0----------------------|
E| 9---- 9-------- 0------ 0------|---------------- 0------ 0------|
http://classicalguitartablature.blogspot.com/

http://classicalguitartablature.blogspot.com/
E|---------- 4 2-- 0--------------| 2---- 2-- 4---- 2-- 0 0--------|
B| 5-------------- 0--------------| 2 5-- 2-- 2---- 0-- 0 0--------|
G| 2---- 2-------- 1---- 1---- 1--| 2 2-- 2-------- 1-- 1 1---- 1--|
D|---- 2-------------- 2------ 2--|-- 2-------- 2------------ 2----|
A| 0------ 0----------------------| 0------ 0----------------------|
E|---------------- 0------ 0------|---------------- 0------ 0------|
http://classicalguitartablature.blogspot.com/
E|--------------------------------|------------ 7------------------|
B|10 9-- 9-- 7----10 9-- 9 7------| 9 9-- 9-- 7 7---- 7-- 7--------|
G| 7---- 7-- 7-- 7 7 7-- 7-- 7-- 7| 8-- 8 8-- 8-- 8-- 8-- 8-- 9----|
D| 7 7-- 7-- 7---- 7 7-- 7-- 7----| 9 9-- 9-- 9------ 9-- 9--------|
A|--------------------------------|--------------------------------|
E|10----10--------10------10------| 7------ 7------ 7------ 7------|
http://classicalguitartablature.blogspot.com/
E|--------------------------------|--------------------------------|
B|---------- 5-- 2----------------|--------------------------------|
G| 1-- 2-- 4-- 4-- 2---- 2 4-- 4--|-------- 1-- 1------ 1---- 1----|
D| 2-- 4 6---- 6---- 2---- 2 2----| 4-- 4------ 2---- 2-------- 2--|
A|---------------- 0------ 0------| 2------ 2----------------------|
E| 0------ 0----------------------|---------------- 0---- 0--------|
http://classicalguitartablature.blogspot.com/
E|------------------------ 4---- 2|------------ 0------------------|
B|---------- 5---- 2--------------| 4---- 5---- 0------------------|
G| 1-- 2-- 4-- 4-- 2-- 2------ 2--| 2-- 2 2---- 1------ 1---- 1----|
D| 2-- 4 6---- 6------ 2---- 2----|---- 4 4---------- 2------ 2----|
A|---------------- 0------ 0------| 2------ 2----------------------|
E| 0------ 0----------------------|---------------- 0--------------|
http://classicalguitartablature.blogspot.com/
E|--------------------------------|--------------------------------|
B|---------- 5-- 2----------------|--------------------------------|
G| 1-- 2-- 4-- 4-- 2---- 2 4-- 4--|-------- 1-- 1------ 1---- 1----|
D| 2-- 4 6---- 6---- 2---- 2 2----| 4-- 4------ 2---- 2-------- 2--|
A|---------------- 0------ 0------| 2------ 2----------------------|
E| 0------ 0----------------------|---------------- 0---- 0--------|
http://classicalguitartablature.blogspot.com/
E|------------------------ 4---- 2|------------ 0------------------|
B|------------ 5-- 2--------------| 4---- 5---- 0------------------|
G| 1-- 2-- 4-- 4-- 2-- 2------ 2--| 2-- 2 2---- 1------ 1---- 1----|
D| 2-- 4 6---- 6------ 2---- 2----|---- 4 4---------- 2------ 2-- 2|
A|---------------- 0------ 0------| 2------ 2-------------------- 0|
E| 0------ 0----------------------|---------------- 0--------------|
http://classicalguitartablature.blogspot.com/
E|---------- 4 2-- 0-------- 0 2--| 4---------------- 4------------|
B| 0------------------------------| 5-- 7 7-- 5-- 7-- 5---- 5------|
G| 2---- 2---------------- 2------| 4-- 4 4-- 4-- 4------ 4---- 4--|
D|---- 2-------------- 2----------|---- 6 6-- 6-- 6-- 6------------|
A|--------------------------------| 4------------------------------|
E|--------------------------------|--------------------------------|
http://classicalguitartablature.blogspot.com/
E|------------------------------ 4|---- 4 4-- 2---- 7--------------|
B|10-- 9 9-- 7----10 9-- 9-- 7-- 2|---- 2 2-------- 7-- 9-- 7------|
G| 7-- 7 7------ 7 7 7-- 7------ 2|---- 2 2------ 2 8-- 8-- 8-- 9--|
D| 7-- 7 7---- 7-- 7-- 7 7-- 7----|------------ 2------ 9------ 9--|
A|--------------------------------| 0------ 0----------------------|
E|10------10------10----10--------|---------------- 7--------------|
http://classicalguitartablature.blogspot.com/
E|--------------------------------|------------ 3 0----------------|
B|--------------------------------| 0-- 1-- 3---- 1-------- 3------|
G|--------------------------------| 0------ 0------ 0-- 0------ 0 2|
D|--------------------------------|-- 0-- 0-- 0-------- 2---- 2----|
A|--------------------------------|---------------- 3------ 3---- 5|
E|--------------------------------| 3------ 3----------------------|
http://classicalguitartablature.blogspot.com/
E|--------------------------------|------------ 3-------- 7------ 5|
B|------ 0---- 0------------------| 0-- 1-- 3------------ 8------ 8|
G|---- 2 2---- 0-------- 0---- 0--| 0------ 0---- 9---- 9------ 9 5|
D|-- 4---------------- 0------ 0--|-- 0-- 0-- 0--------10----10----|
A|------ 5------------------------|------------------------------ 5|
E|---------------- 3------ 3------| 3------ 3------ 8------ 8------|
http://classicalguitartablature.blogspot.com/
E|------------ 3------------------|------------ 3 0----------------|
B|------ 8---- 3------------------| 0-- 1-- 3---- 1-------- 3------|
G|---- 5-- 5-- 0-------- 0---- 0--| 0------ 0------ 0-- 0------ 0 2|
D|-- 7---- 7---------- 0------ 0--|-- 0-- 0-- 0-------- 2---- 2----|
A|-------- 5----------------------|---------------- 3------ 3---- 5|
E|---------------- 3------ 3------| 3------ 3----------------------|
http://classicalguitartablature.blogspot.com/
E|--------------------------------|------------ 3-------- 7------ 5|
B|------ 0---- 0------------------| 0-- 1-- 3------------ 8------ 8|
G|---- 2 2---- 0-------- 0---- 0--| 0------ 0---- 9---- 9------ 9 5|
D|-- 4---------------- 0------ 0--|-- 0-- 0-- 0--------10----10----|
A|------ 5------------------------|------------------------------ 5|
E|---------------- 3------ 3------| 3------ 3------ 8------ 8------|
http://classicalguitartablature.blogspot.com/
E|------------ 3------------------|--------------------------------|
B|------ 8---- 3------------------|---------- 5-- 2----------------|
G|---- 5-- 5-- 0-------- 0---- 0--| 1-- 2-- 4-- 4-- 2---- 2 4-- 4--|
D|-- 7---- 7---------- 0------ 0--| 2-- 4 6---- 6---- 2---- 2 2----|
A|-------- 5----------------------|---------------- 0------ 0------|
E|---------------- 3------ 3------| 0------ 0----------------------|
http://classicalguitartablature.blogspot.com/
E|------------ 4------------------|------------------------ 4---- 2|
B|------------ 5---- 7 5 7-- 5----|------------ 5-- 2--------------|
G|-------- 1-- 4------ 4 4-- 4 4--| 1-- 2-- 4-- 4-- 2-- 2------ 2--|
D| 4-- 4-------------- 6 6---- 6--| 2-- 4 6---- 6------ 2---- 2----|
A| 2------ 2----------------------|---------------- 0------ 0------|
E|---------------- 0------ 0------| 0------ 0----------------------|
http://classicalguitartablature.blogspot.com/
E|---------------- 4--------------|--------------------------------|
B| 4---- 5---- 5-- 5-- 7-- 7-- 5--|------------ 5 2----------------|
G| 2-- 2 2---- 4-- 4-- 4-- 4-- 4--| 1-- 2-- 4-- 4-- 2---- 2 4-- 4--|
D|---- 4 4---- 6------ 6-- 6-- 6--| 2-- 4 6---- 6---- 2---- 2 2----|
A| 2------ 2----------------------|---------------- 0------ 0------|
E|---------------- 0------ 0------| 0------ 0----------------------|
http://classicalguitartablature.blogspot.com/
E|------------ 4---- 7------------|------------------------ 4------|
B|-------------------- 7 5--------|------------ 5-- 2--------------|
G|-------- 1-------------- 6-- 6 4| 1-- 2-- 4-- 4-- 2-- 2------ 2--|
D| 4-- 4------ 6---------- 6------| 2-- 4 6---- 6------ 2---- 2----|
A| 2------ 2------ 4------ 4------|---------------- 0------ 0------|
E|--------------------------------| 0------ 0----------------------|
http://classicalguitartablature.blogspot.com/
E| 2---------- 0------------------| 4------------------------------|
B| 4---- 5---- 0------------------| 5-- 7-- 7-- 5-- 5------ 2------|
G| 2-- 2 2---- 1------ 1---- 1----| 4-- 4-- 4-- 4-- 2------ 2------|
D|---- 4 4---------- 2------ 2----|---- 6-- 6-- 6-- 2-- 2-------- 2|
A| 2------ 2----------------------|-------------- 0----------------|
E|---------------- 0--------------| 0------------------------------|
http://classicalguitartablature.blogspot.com/
E|--------------------------------|-------------------------- 0----|
B|--------------------------------|--------------------------------|
G|-- 4----------------------------|--------------------------------|
D|-- 4---- 4---- 4 6--------------|------ 4-- 2--------------------|
A|--------------------------------|--------------------------------|
E|-- 7----------------------------|------ 0------------------------|
http://classicalguitartablature.blogspot.com/

0 ความคิดเห็น:

แสดงความคิดเห็น