To celebrate the anniversary, I am giving you (finally...) : iPhone LickByNeck !!!!!!

Under The Boardwalk (BASIC)

The Drifters' classic tune fingerstyle chord melody guitar BASIC arrangement played in the key of G.

Under The Boardwalk - BASIC ARRANGEMENT played in the key of G
http://classicalguitartablature.blogspot.com/
E|--------------------------------|--------------------------------|
B|---- 8--------------------------|--------------------------------|
G|---- 7---------- 7--------------|---- 7---------- 7--------------|
D|---- 9------ 9------ 9------ 9--|---- 9------ 9------------------|
A|10------------------------------|10------------------------------|
E|------------------------10------|--------------------------------|
http://classicalguitartablature.blogspot.com/
E|--------------------------------|--------------------------------|
B|---- 8--------------------------|---- 8--------------------------|
G|---- 7---------- 7--------------|---- 7---------- 7------ 0-- 2--|
D|---- 9------ 9------ 9------ 9--|---- 9------ 9------ 0----------|
A|10------------------------------|10------------------------------|
E|------------------------10------|--------------------------------|
http://classicalguitartablature.blogspot.com/
E|--------------------------------|--------------------------------|
B| 0-- 0------------------------ 0|---- 0-------- 0----------------|
G| 0-- 0---- 0---------- 0-- 2----| 0-- 0---------- 0------ 0------|
D| 0-- 0---------- 0 0------------| 0-- 0---------- 0------ 0------|
A|---------- 2--------------------|---------- 2--------------------|
E| 3------------------------------| 3------------------------------|
http://classicalguitartablature.blogspot.com/
E|--------------------------------|--------------------------------|
B|--------------------------------|---------------------------- 0--|
G| 2-- 2---------- 2--------------| 2-- 2---------- 2------ 2---- 5|
D| 4-- 4------ 4------ 4------ 4--| 4-- 4------ 4------------------|
A| 5------------------------------| 5------------------------------|
E|------------------------ 5------|--------------------------------|
http://classicalguitartablature.blogspot.com/
E|--------------------------------|--------------------------------|
B|---------------------------- 0--|------------ 3------------------|
G|---- 5-- 5-- 5-------- 2--------| 5-- 5-- 5-- 5------ 5 4---- 2--|
D| 4---------- 4-- 7 0------------| 4---------- 4-------- 4--------|
A| 5---------------------- 0------| 5-------------- 0------ 0------|
E|--------------------------------|--------------------------------|
http://classicalguitartablature.blogspot.com/
E|--------------------------------|------ 3------ 3------ 3---- 0--|
B| 3------------------------------|------ 3------ 3------ 3---- 1--|
G| 0------------------------------|---- 0-------------- 0 0---- 0--|
D| 0-- 0---------- 0------ 0------|-------------- 0-------- 0------|
A|------------ 2------------------|---------- 2------------------ 3|
E| 3------------------------------| 3------------------------------|
http://classicalguitartablature.blogspot.com/
E|--------------------------------|-------- 3---- 3------ 3---- 7--|
B|-- 3-- 1------------------------|-- 1---------- 1-- 1-------- 8--|
G|---- 0 0------ 0----------------|-------------- 0------------ 7--|
D|-- 2-- 2-- 2------ 2-------- 2--|---------- 2--------------------|
A|--------------------------------| 3------------------------------|
E|---------------------- 3--------|------------------------ 3------|
http://classicalguitartablature.blogspot.com/
E|--------------------------------|--------------------------------|
B|---- 8--------------------------| 0------------------------------|
G|---- 7---------- 7---------- 9--| 0 2-- 0---------------- 0-- 2--|
D|------------ 9------ 9----------| 0-------------- 0-- 0----------|
A|10------------------------------|------------ 2------------------|
E|------------------------10------| 3------------------------------|
http://classicalguitartablature.blogspot.com/
E|--------------------------------|--------------------------------|
B| 0-- 0-- 0-- 0------ 3---- 3----|-------------- 0---- 0----------|
G| 0-- 0-- 0-- 0-------------- 5--|---------------------------- 2--|
D| 0-- 0-- 0------ 0------ 0-- 4--| 4---------- 0------------------|
A|------------ 2---------------- 5|--------------------------------|
E| 3------------------------------|--------------------------------|
http://classicalguitartablature.blogspot.com/
E|--------------------------------|--------------------------------|
B|--------------------------------|---- 0--------------------------|
G|---- 0--------------------------|---- 0--------------------------|
D|---------------- 0------ 0------|---- 0---------- 0-- 0-- 0-- 0--|
A|------------ 2------------------|------------ 2------------------|
E| 3------------------------------| 3------------------------------|
http://classicalguitartablature.blogspot.com/
E|-------------------- 0----------| 0-- 2-- 0-- 2------ 0-- 0-- 0--|
B|---------------------------- 3--|--------------------------------|
G|--------------------------------|--------------------------------|
D| 2-- 0-- 2----------------------|--------------------------------|
A|--------------------------------|--------------------------------|
E| 0---------- 0-- 0--------------| 0---------- 0-- 0--------------|
http://classicalguitartablature.blogspot.com/
E|--------------------------------|---- 0------ 0------------------|
B| 3-- 2-- 3---------- 3-- 3------| 3------ 3---------- 3-- 3-- 3--|
G|---------------------------- 4--| 2------------------------------|
D|--------------------------------| 4------------------------------|
A| 5---------- 5-- 5--------------| 5---------- 5-- 5--------------|
E|--------------------------------|--------------------------------|
http://classicalguitartablature.blogspot.com/
E|-------------------- 0----------| 0-- 2-- 0-- 2------ 0-- 0-- 0--|
B|---------------------------- 3--|--------------------------------|
G|--------------------------------|--------------------------------|
D| 2-- 0-- 2----------------------|--------------------------------|
A|--------------------------------|--------------------------------|
E| 0---------- 0-- 0--------------| 0---------- 0-- 0--------------|
http://classicalguitartablature.blogspot.com/
E|--------------------------------|---- 0------ 0------------------|
B| 3-- 2-- 3---------- 3-- 3------| 3------ 3---------- 3-- 3-- 3--|
G|---------------------------- 4--| 2------------------------------|
D|--------------------------------| 4---------------------------- 2|
A| 5---------- 5-- 5--------------| 5---------- 5-- 5--------------|
E|--------------------------------|--------------------------------|
http://classicalguitartablature.blogspot.com/
E|--------------------------------|--------------------------------|
B|--------------------------------|------------------ 3------------|
G|--------------------------------|-------- 0-- 2-- 4------ 4-- 0--|
D|---- 0 2---------------- 2-- 0--| 2-- 0--------------------------|
A|--------------------------------|--------------------------------|
E| 0------ 0-------------- 0------| 0------------------------------|
http://classicalguitartablature.blogspot.com/
E|--------------------------------|--------------------------------|
B| 0-- 0------------------------ 0|---- 0-------- 0----------------|
G| 0-- 0---- 0---------- 0-- 2----| 0-- 0---------- 0------ 0------|
D| 0-- 0---------- 0 0------------| 0-- 0---------- 0------ 0------|
A|---------- 2--------------------|---------- 2--------------------|
E| 3------------------------------| 3------------------------------|
http://classicalguitartablature.blogspot.com/
E|--------------------------------|--------------------------------|
B|--------------------------------|---------------------------- 0--|
G| 2-- 2---------- 2--------------| 2-- 2---------- 2------ 2---- 5|
D| 4-- 4------ 4------ 4------ 4--| 4-- 4------ 4------------------|
A| 5------------------------------| 5------------------------------|
E|------------------------ 5------|--------------------------------|
http://classicalguitartablature.blogspot.com/
E|--------------------------------|--------------------------------|
B|---------------------------- 0--|------------ 3------------------|
G|---- 5-- 5-- 5-------- 2--------| 5-- 5-- 5-- 5------ 5 4---- 2--|
D| 4---------- 4-- 7 0------------| 4---------- 4-------- 4--------|
A| 5---------------------- 0------| 5-------------- 0------ 0------|
E|--------------------------------|--------------------------------|
http://classicalguitartablature.blogspot.com/
E|--------------------------------|------ 3------ 3------ 3---- 0--|
B| 3------------------------------|------ 3------ 3------ 3---- 1--|
G| 0------------------------------|---- 0-------------- 0 0---- 0--|
D| 0-- 0---------- 0------ 0------|-------------- 0-------- 0------|
A|------------ 2------------------|---------- 2------------------ 3|
E| 3------------------------------| 3------------------------------|
http://classicalguitartablature.blogspot.com/
E|--------------------------------|-------- 3---- 3------ 3---- 7--|
B|-- 3-- 1------------------------|-- 1---------- 1-- 1-------- 8--|
G|---- 0 0------ 0----------------|-------------- 0------------ 7--|
D|-- 2-- 2-- 2------ 2-------- 2--|---------- 2--------------------|
A|--------------------------------| 3------------------------------|
E|---------------------- 3--------|------------------------ 3------|
http://classicalguitartablature.blogspot.com/
E|--------------------------------|--------------------------------|
B|---- 8--------------------------| 0------------------------------|
G|---- 7---------- 7---------- 9--| 0 2-- 0---------------- 0-- 2--|
D|------------ 9------ 9----------| 0-------------- 0-- 0----------|
A|10------------------------------|------------ 2------------------|
E|------------------------10------| 3------------------------------|
http://classicalguitartablature.blogspot.com/
E|--------------------------------|--------------------------------|
B| 0-- 0-- 0-- 0------ 3---- 3----|-------------- 0---- 0----------|
G| 0-- 0-- 0-- 0-------------- 5--|---------------------------- 2--|
D| 0-- 0-- 0------ 0------ 0-- 4--| 4---------- 0------------------|
A|------------ 2---------------- 5|--------------------------------|
E| 3------------------------------|--------------------------------|
http://classicalguitartablature.blogspot.com/
E|--------------------------------|--------------------------------|
B|--------------------------------|---- 0--------------------------|
G|---- 0--------------------------|---- 0--------------------------|
D|---------------- 0------ 0------|---- 0---------- 0-- 0-- 0-- 0--|
A|------------ 2------------------|------------ 2------------------|
E| 3------------------------------| 3------------------------------|
http://classicalguitartablature.blogspot.com/
E|-------------------- 0----------| 0-- 2-- 0-- 2------ 0-- 0-- 0--|
B|---------------------------- 3--|--------------------------------|
G|--------------------------------|--------------------------------|
D| 2-- 0-- 2----------------------|--------------------------------|
A|--------------------------------|--------------------------------|
E| 0---------- 0-- 0--------------| 0---------- 0-- 0--------------|
http://classicalguitartablature.blogspot.com/
E|--------------------------------|---- 0------ 0------------------|
B| 3-- 2-- 3---------- 3-- 3------| 3------ 3---------- 3-- 3-- 3--|
G|---------------------------- 4--| 2------------------------------|
D|--------------------------------| 4------------------------------|
A| 5---------- 5-- 5--------------| 5---------- 5-- 5--------------|
E|--------------------------------|--------------------------------|
http://classicalguitartablature.blogspot.com/
E|-------------------- 0----------| 0-- 2-- 0-- 2------ 0-- 0-- 0--|
B|---------------------------- 3--|--------------------------------|
G|--------------------------------|--------------------------------|
D| 2-- 0-- 2----------------------|--------------------------------|
A|--------------------------------|--------------------------------|
E| 0---------- 0-- 0--------------| 0---------- 0-- 0--------------|
http://classicalguitartablature.blogspot.com/
E|--------------------------------|---- 0------ 0------------------|
B| 3-- 2-- 3---------- 3-- 3------| 3------ 3---------- 3-- 3-- 3--|
G|---------------------------- 4--| 2------------------------------|
D|--------------------------------| 4---------------------------- 2|
A| 5---------- 5-- 5--------------| 5---------- 5-- 5--------------|
E|--------------------------------|--------------------------------|
http://classicalguitartablature.blogspot.com/
E|--------------------------------|--------------------------------|
B|--------------------------------|--------------------------------|
G|--------------------------------|--------------------------------|
D|---- 0 2---------------- 2-- 0--| 2------------------------------|
A|--------------------------------|--------------------------------|
E| 0------ 0-------------- 0------| 0------------------------------|
http://classicalguitartablature.blogspot.com/

0 ความคิดเห็น:

แสดงความคิดเห็น