To celebrate the anniversary, I am giving you (finally...) : iPhone LickByNeck !!!!!!

Venus (BASIC)

Popular tune fingerstyle chord melody guitar BASIC arrangement played in the key of Am.

http://classicalguitartablature.blogspot.com/
Venus- BASIC ARRANGEMENT played in the key of Am
http://classicalguitartablature.blogspot.com/
E|--------------------------------|--------------------------------|
B|--------------------------------|--------------------------------|
G| 5------------ 5-- 5------------| 5------------ 5-- 5------------|
D| 5------------ 4---- 4----------| 5------------ 4-- 4---------- 9|
A|---------------- 5-- 5----------|-------------- 5-- 5---------- 7|
E| 5-- 5 8---- 5---------- 3-- 4--| 5-- 5-- 8 5------------ 3-- 4 0|
http://classicalguitartablature.blogspot.com/
E|---- 7 7-------- 7--------------| 7 7-- 7---- 7-- 7 7------------|
B|1010--10----10--1010------------|10--1010----10--1010------------|
G| 7 7-- 7---- 7---- 7------------| 7 7-- 7---- 7---- 7---------- 5|
D|------ 9---------- 9---------- 9|-- 9-- 9---------- 9------------|
A|------------------ 7---------- 7|------------------ 7------------|
E|-------------- 0----------------|-- 0-- 0------------------------|
http://classicalguitartablature.blogspot.com/
http://classicalguitartablature.blogspot.com/
E|--------------------------------|--------------------------------|
B|--------------------------------|--------------------------------|
G|-------------- 5-------------- 5|-------------- 5----------------|
D| 5------------ 4----------------| 5------------ 4----------------|
A|---------------- 5-- 5----------|---------------- 5-- 5----------|
E| 5-- 5-- 8-- 5---------- 3-- 4--| 5-- 5-- 8-- 5---------- 3-- 4--|
http://classicalguitartablature.blogspot.com/
E| 8-- 8 7-- 5-- 5------ 5---- 5--|--------------------------------|
B| 5------------ 5-- 8------------|--------------------------------|
G| 5------------ 5-- 5---------- 5|-------------- 5----------------|
D|------------------ 5------------| 5------------ 4----------------|
A|-------------- 5-- 5------------|---------------- 5-- 5----------|
E| 5-- 5 8---- 5-------- 3---- 4--| 5-- 5-- 8-- 5---------- 3-- 4--|
http://classicalguitartablature.blogspot.com/
E| 8-- 8-- 810-- 5------ 5---- 5--|------------------------------ 8|
B| 5-- 5-------- 5-- 8------------|--------------------------------|
G| 5-- 5-------- 5-- 5---------- 5|-------------- 5----------------|
D|------------------ 5------------| 5------------ 4----------------|
A|------------ 0 5-- 5------------|---------------- 5-- 5----------|
E| 5-- 5-- 8------------ 3---- 4--| 5-- 5-- 8-- 5---------- 3-- 4--|
http://classicalguitartablature.blogspot.com/
E|-- 8-- 7------ 5------ 5---- 5--|--------------------------------|
B| 5------------ 5-- 8------------|--------------------------------|
G| 5 5---------- 5-- 5---------- 5|-------------- 5----------------|
D|------------------ 5------------| 5------------ 4----------------|
A|------------ 0 5-- 5------------|---------------- 5-- 5----------|
E| 5------ 8------------ 3---- 4--| 5-- 5-- 8-- 5---------- 3-- 4--|
http://classicalguitartablature.blogspot.com/
E| 8-- 8 7-- 5---- 7--------------|-------------------------- 8--10|
B| 5-------------- 5--------------|-------------------------- 5--10|
G| 5-------------- 5--------------|-------------------------- 5--10|
D|--------------------------------|--------------------------------|
A|---------------- 5--------------|------------ 5-- 7-- 7 5--------|
E| 5-- 5 8---- 5------------------|---- 5-- 8----------------------|
http://classicalguitartablature.blogspot.com/
E|--10----------------------------|--------10--10----------10------|
B|--10------------10--------------|--------10--10------13----------|
G|--10------------10--------------|--------10--10----10------------|
D|---------------- 9--------------|--------------------10----------|
A|----------------10--10----------|----------------10--------------|
E|1010--13--10------------ 8-- 9--|10--10--13--10---------- 8-- 9--|
http://classicalguitartablature.blogspot.com/
E| 8-- 5--------------------------|--------------------------------|
B| 5-- 5--------------------------|--------------------------------|
G| 5-- 5---------- 5--------------| 5------------ 5-- 5------------|
D|---------------- 4--------------| 5------------ 4-- 4------------|
A|---------------- 5-- 5----------|-------------- 5-- 5------------|
E| 5-- 5-- 8-- 5---------- 3-- 4--| 5-- 5-- 8 5------------ 3-- 4--|
http://classicalguitartablature.blogspot.com/
E|-- 8-------------- 8------------|----12------12------12------ 8--|
B|--10------10--10--10------------|----12----------15--12------ 5--|
G|-- 9------ 9-- 9----------------|----13------13--13---------- 5--|
D|----------10--10----------------|----------------12--------------|
A| 8-- 8 8-- 8---- 8-- 8-- 8 8----|--------------------------------|
E|--------------------------------| 0-- 0-- 0-- 0-- 0-- 0-- 0------|
http://classicalguitartablature.blogspot.com/
E|---- 5------ 5------------------|--------------------------------|
B|---- 5-- 8-- 5------------------|--------------------------------|
G|---- 5------ 5-- 5--------------| 5------------ 5-- 5------------|
D|-------- 5------ 4--------------| 5------------ 4-- 4------------|
A|---------------- 5-- 5----------|-------------- 5-- 5------------|
E| 5-- 5-- 8-- 5-------- 3---- 4--| 5-- 5-- 8 5------------ 3-- 4--|
http://classicalguitartablature.blogspot.com/
E|-- 8-------------- 8------------|----12------12------12------ 8--|
B|--10------10--10--10------------|----12----------15--12------ 5--|
G|-- 9------ 9-- 9----------------|----13------13--13---------- 5--|
D|----------10--10----------------|----------------12--------------|
A| 8-- 8 8-- 8---- 8-- 8-- 8 8----|--------------------------------|
E|--------------------------------| 0-- 0-- 0-- 0-- 0-- 0-- 0------|
http://classicalguitartablature.blogspot.com/
E|---- 5------ 5------------------|--------------------------------|
B|---- 5-- 8-- 5------------------|--------------------------------|
G|---- 5------ 5-- 5--------------| 5------------ 5-- 5------------|
D|-------- 5------ 4--------------| 5------------ 4-- 4------------|
A|---------------- 5-- 5----------|-------------- 5-- 5------------|
E| 5-- 5-- 8-- 5-------- 3---- 4--| 5-- 5-- 8 5------------ 3-- 4--|
http://classicalguitartablature.blogspot.com/
E|-- 8-------------- 8------------|----12------12------12------ 8--|
B|--10------10--10--10------------|----12----------15--12------ 5--|
G|-- 9------ 9-- 9----------------|----13------13--13---------- 5--|
D|----------10--10----------------|----------------12--------------|
A| 8-- 8 8-- 8---- 8-- 8-- 8 8----|--------------------------------|
E|--------------------------------| 0-- 0-- 0-- 0-- 0-- 0-- 0------|
http://classicalguitartablature.blogspot.com/
E|---- 5------ 5------------------|--------------------------------|
B|---- 5-- 8-- 5------------------|--------------------------------|
G|---- 5------ 5-- 5--------------| 5------------ 5-- 5------------|
D|-------- 5------ 4--------------| 5------------ 4-- 4---------- 9|
A|---------------- 5-- 5----------|-------------- 5-- 5---------- 7|
E| 5-- 5-- 8-- 5-------- 3---- 4--| 5-- 5-- 8 5------------ 3-- 4 0|
http://classicalguitartablature.blogspot.com/
E|---- 7 7-------- 7--------------| 7 7-- 7---- 7-- 7 7------------|
B|1010--10----10--1010------------|10--1010----10--1010------------|
G| 7 7-- 7---- 7---- 7------------| 7 7-- 7---- 7---- 7------------|
D|------ 9---------- 9---------- 9|-- 9-- 9---------- 9------------|
A|------------------ 7---------- 7|------------------ 7------------|
E|-------------- 0----------------|-- 0-- 0------------------------|
http://classicalguitartablature.blogspot.com/
E|--------------------------------|--------------------------------|
B|--------------------------------|--------------------------------|
G| 5------------ 5-- 5------------| 5------------ 5-- 5------------|
D| 5------------ 4-- 4------------| 5------------ 4-- 4---------- 2|
A|-------------- 5-- 5------------|-------------- 5-- 5---------- 0|
E| 5-- 5-- 8 5------------ 3-- 4--| 5-- 5-- 8 5------------ 3-- 4--|
http://classicalguitartablature.blogspot.com/
E|--------------------------------|--------------------------------|
B| 0------------------------------|--------------------------------|
G| 0------------------------------|--------------------------------|
D|--------------------------------|--------------------------------|
A|--------------------------------|--------------------------------|
E|--------------------------------|--------------------------------|
http://classicalguitartablature.blogspot.com/

0 ความคิดเห็น:

แสดงความคิดเห็น