To celebrate the anniversary, I am giving you (finally...) : iPhone LickByNeck !!!!!!

What's Up - 4 Non Blondes

4 Non Blondes' tune fingerstyle chord melody guitar BASIC arrangement played in the key of G.

What's Up - 4 Non Blondes - BASIC ARRANGEMENT played in the key of G
http://classicalguitartablature.blogspot.com/
E|--------------------------------|--------------------------------|
B|-------------------- 3 3 3-- 3--|--------------------------------|
G|------------------------------ 0|------ 0------------ 0----------|
D|------------------------------ 0|-------------------- 0------ 0--|
A|--------------------------------|--------------------------------|
E|------------------------------ 3|-------------- 3 3------ 3------|
http://classicalguitartablature.blogspot.com/
E|--------------------------------|--------------------------------|
B|--------------------------------|------------------------ 1------|
G|-------------- 0---------- 0----| 0-------------------- 0-- 0 3 3|
D| 2------ 0 2------ 2-- 0-- 2-- 2| 2------ 2------------ 2--------|
A| 0-------------- 0--------------| 3------------ 3 3--------------|
E|--------------------------------|--------------------------------|
http://classicalguitartablature.blogspot.com/
http://classicalguitartablature.blogspot.com/
E|--------------------------------|--------------------------------|
B|--------------------------------|---- 0 0---- 0-- 0 0-- 3-- 3----|
G| 0------ 0------------ 0--------|---- 0-- 0------ 0 0-- 0------ 2|
D| 0------ 0---------- 0 0--------|---- 0 0 0---- 0 0 0-- 0 0---- 2|
A|--------------------------------|--------------------------------|
E| 3------------ 3 3---------- 3--| 3-------------- 3--------------|
http://classicalguitartablature.blogspot.com/
E|--------------------------------|--------------------------------|
B|---------------- 3 3------ 0----|------------------------------ 0|
G|-- 2-- 2-- 2 0-- 0 0-- 2---- 2--| 0------ 0---------- 0-- 0 0-- 0|
D|-- 2-- 2-- 2 2-------- 2--------| 2------ 2------------ 2--------|
A| 0------------ 0----------------| 3------------ 3 3--------------|
E|--------------------------------|--------------------------------|
http://classicalguitartablature.blogspot.com/
E|--------------------------------|--------------------------------|
B|--------------------------------|---- 0 0---- 0-- 0 0-- 3-- 3----|
G| 0---------------------- 0------|---- 0-- 0------ 0 0-- 0------ 2|
D|------ 0------------ 0------ 0--|---- 0 0 0---- 0 0 0-- 0 0---- 2|
A|--------------------------------|--------------------------------|
E| 3------------ 3 3--------------| 3-------------- 3--------------|
http://classicalguitartablature.blogspot.com/
E|--------------------------------|--------------------------------|
B|---------------- 3 3------ 0----|---------------------------- 0--|
G|-- 2-- 2-- 2 0-- 0 0-- 2---- 2--| 0------ 0-------- 0-- 0-- 0 0--|
D|-- 2-- 2-- 2 2-------- 2--------| 2------ 2---------- 2----------|
A| 0------------ 0----------------| 3------------ 3 3--------------|
E|--------------------------------|--------------------------------|
http://classicalguitartablature.blogspot.com/
E|--------------------------------| 7 7-- 7------------------------|
B|-------------------------- 3 3--| 8-- 8 8-- 8 8 3-- 3-- 1-- 0----|
G|---- 0------ 0---------- 0------| 7-- 7 7 7 7 7 0-- 0-- 0---- 0--|
D|-------- 0---------- 0----------|-------- 9 9 9 0-- 0-- 0--------|
A|--------------------------------|10------------------------------|
E| 3-------------- 3--------------|---------------- 3------ 3------|
http://classicalguitartablature.blogspot.com/
E|---- 7 5------ 7-- 7------------|------ 3 3 3 3-------- 3 3------|
B|---- 5 5------ 5-- 5-- 8-- 5----|---- 1 1 1 1-- 1------ 1 1------|
G| 5 5 5---- 5-- 5-- 5-- 5-- 5 5--|---- 0 0 0 0-- 0------ 0 0-- 2--|
D| 5 5------ 5---------- 5-- 5 5--|---- 2-------------- 2------ 0--|
A| 0-------------- 0--------------| 3-------------- 3--------------|
E|--------------------------------|------------------------------ 3|
http://classicalguitartablature.blogspot.com/
E|--------------------------------| 7 7-- 7------------------------|
B| 0------------------------ 3-- 3| 8-- 8 8-- 8 8 3-- 3-- 1-- 0----|
G|-------- 2---- 2------ 2---- 2--| 7-- 7 7 7 7 7 0-- 0-- 0---- 0--|
D|---- 0------ 0------ 0----------|-------- 9 9 9 0-- 0-- 0--------|
A|--------------------------------|10------------------------------|
E|---------------- 3--------------|---------------- 3------ 3------|
http://classicalguitartablature.blogspot.com/
E|---- 7 5------ 7-- 7------------|-------------------------- 7-- 3|
B|---- 5 5------ 5-- 5-- 8-- 5----|---- 8-- 8-- 8 8----10--10---- 3|
G| 5 5 5---- 5-- 5-- 5-- 5-- 5 5--|---- 9 9 9---------- 9 9------ 0|
D| 5 5------ 5---------- 5-- 5 5--|----10--------------1010--------|
A| 0-------------- 0--------------|--------------------------------|
E|--------------------------------| 8-------------- 8------------ 3|
http://classicalguitartablature.blogspot.com/
E|--------------------------------| 7------------------------------|
B|-------- 3------------------ 3--| 8------ 8------ 3---- 1-- 0----|
G|-------- 0-------------- 0------| 7------ 7------ 0---- 0-- 0----|
D|-------- 0---------- 0----------|------ 9------ 9 0-- 0------ 0--|
A|--------------------------------|10------------------------------|
E| 3------------ 3 3--------------|---------------- 3--------------|
http://classicalguitartablature.blogspot.com/
E| 7---------------------- 5 7----|------------------------ 7-- 3--|
B| 8------ 8-------------- 8 8 8--|------------------10--1010---- 3|
G| 5------ 5------ 5---- 5 5 5----|-- 9-- 9---------- 9-- 9 9---- 0|
D|------ 5------ 5---- 5----------|--10--------------10--10--------|
A| 0-------------- 0--------------|--------------------------------|
E|------------------------------ 8|------------ 8-- 8--------------|
http://classicalguitartablature.blogspot.com/
E|--------------------------------| 7------------------------------|
B|------------------------ 3-- 3--| 8------ 8------ 3---- 1-- 0----|
G|-------- 0-------------- 0-- 0--| 7------ 7------ 0---- 0-- 0----|
D|---- 0-------------- 0-- 0-- 0--|------ 9------ 9 0-- 0------ 0--|
A|--------------------------------|10------------------------------|
E| 3-------------- 3--------------|---------------- 3--------------|
http://classicalguitartablature.blogspot.com/
E| 7------------10--1010----------|------------------10--10--10 3--|
B| 8------ 8---- 8-- 8 8------ 8--|---- 8-- 8-- 8---- 8-- 8-- 8-- 3|
G| 9---- 9-- 9-- 9---- 9-- 9------|-- 9 9-- 9-------- 9-- 9-- 9-- 0|
D|----10--------------10----------|--10----------------------------|
A| 0-------------- 0--------------|--------------------------------|
E|--------------------------------| 8-------------- 8--------------|
http://classicalguitartablature.blogspot.com/
E|--------------------------------|--------------------------------|
B|------------------------ 3-- 3--|---- 0 0 0-- 0-- 0 0-- 3-- 3----|
G|-------- 0-------------- 0-- 0--|--------------------------------|
D|---- 0-------------- 0-- 0-- 0--|-------------- 0----------------|
A|--------------------------------|------------------------------ 0|
E| 3-------------- 3--------------| 3------------------------------|
http://classicalguitartablature.blogspot.com/
E|--------------------------------|--------------------------------|
B|---------------- 3 3------ 0----|--------------------------------|
G| 2-- 2 2-- 2 0-- 0---- 2--------| 0-------- 0------------ 0---- 0|
D| 2-------------- 2--------------| 2-- 2-------- 2---------- 2----|
A|---------------- 0--------------| 3---------------- 3------------|
E|--------------------------------|--------------------------------|
http://classicalguitartablature.blogspot.com/
E|--------------------------------|--------------------------------|
B|--------------------------------|--------------------------------|
G|-- 0---- 3-------- 0---- 0------|---- 0--------------------------|
D|-------------------- 0-------- 0|--------------------------------|
A|--------------------------------|--------------------------------|
E|-------------- 3----------------|--------------------------------|
http://classicalguitartablature.blogspot.com/

0 ความคิดเห็น:

แสดงความคิดเห็น