To celebrate the anniversary, I am giving you (finally...) : iPhone LickByNeck !!!!!!

Without You (BASIC)

Mariah Carey's classic tune fingerstyle chord melody guitar BASIC arrangement played in the key of A.
You need to install the Flash plugin - http://www.webestools.com/

http://classicalguitartablature.blogspot.com/
Without You - BASIC ARRANGEMENT played in the key of A
http://classicalguitartablature.blogspot.com/
E|--------------------------------|-------------------------- 0----|
B| 0---- 0------------------------| 0---- 0---------------- 2------|
G| 2---- 2-------- 2------ 2------| 2---- 2-------- 2--------------|
D|---- 2------ 2------ 2------ 2--|---- 2------ 2------ 2----------|
A| 0------------------------------| 0------------------------------|
E|--------------------------------|--------------------------------|
http://classicalguitartablature.blogspot.com/
E| 2-- 2 2------------------------| 2 2 2--------------------------|
B| 2-- 2 2---- 5 5-- 2---- 2 5----| 5 5 5---- 5-- 5-- 2---- 2 5----|
G| 2-- 2 2-------------- 2---- 2--| 4 4---- 4------------ 4------ 4|
D|---------- 2-------- 2---- 2----|------ 2------------ 2------ 2--|
A| 0------------------------------| 4------------------------------|
E|--------------------------------|--------------------------------|
http://classicalguitartablature.blogspot.com/
E| 0------------------------------|--------------------------------|
B| 3-- 3-- 3-- 2-- 2-- 0-- 0------| 2------------------ 2-- 2-- 0--|
G| 2-- 2-- 2-- 2-- 2-- 2-- 2-- 2--| 4------ 4---------- 1-- 1-- 1--|
D|-- 4---- 4-- 4-- 4-- 4-- 4------| 3-- 3------ 3------ 0-- 0-- 0--|
A| 5------------------------------| 4------------------------------|
E|--------------------------------|---------------- 1--------------|
http://classicalguitartablature.blogspot.com/
E|------------ 2-- 2 5---- 5 2----|-------------------------- 5----|
B|---- 2-- 2-- 2-- 2------ 2 2----| 7------ 7------ 7---- 7--------|
G| 2-- 2-- 2---- 2-------- 2 2----| 6-- 6-------- 6----------------|
D| 2------------------------------|-- 7------ 7--------------------|
A|--------------------------------| 6------------------------------|
E| 2------------ 0----------------|--------------------------------|
http://classicalguitartablature.blogspot.com/
E|--------------------------------|------------------------ 0------|
B| 5-------------------- 2--------| 0-------------------- 2--------|
G| 2------ 2---- 2---- 2---- 4 2--| 2------ 2------ 1--------------|
D|---- 2------ 2------ 2----------|---- 2------ 2------ 2----------|
A| 0-------------- 0--------------|--------------------------------|
E|--------------------------------| 0-------------- 0--------------|
http://classicalguitartablature.blogspot.com/
E| 2-- 2 2------------------------| 2 2 2--------------------------|
B| 2-- 2 2---- 5 5-- 2---- 2 5----| 5 5 5---- 5-- 5-- 2---- 2 5----|
G| 2-- 2 2-------------- 2---- 2--| 4 4---- 4------------ 4------ 4|
D|---------- 2-------- 2---- 2----|------ 2------------ 2------ 2--|
A| 0------------------------------| 4------------------------------|
E|--------------------------------|--------------------------------|
http://classicalguitartablature.blogspot.com/
E| 0------------------------------|--------------------------------|
B| 3-- 3-- 3-- 2-- 2-- 0-- 0------| 2------------------ 2-- 2-- 0--|
G| 2-- 2-- 2-- 2-- 2-- 2-- 2-- 2--| 4------ 4---------- 1-- 1-- 1--|
D|-- 4---- 4-- 4-- 4-- 4-- 4------| 3-- 3------ 3------ 0-- 0-- 0--|
A| 5------------------------------| 4------------------------------|
E|--------------------------------|---------------- 1--------------|
http://classicalguitartablature.blogspot.com/
E|------------ 2-- 2 5---- 5 2----|-------------------------- 5----|
B|---- 2-- 2-- 2-- 2------ 2 2----| 7------ 7------ 7---- 7--------|
G| 2-- 2-- 2---- 2-------- 2 2----| 6-- 6-------- 6----------------|
D| 2------------------------------|-- 7------ 7--------------------|
A|--------------------------------| 6------------------------------|
E| 2------------ 0----------------|--------------------------------|
http://classicalguitartablature.blogspot.com/
E|--------------------------------|--------------------------------|
B| 5-------------------- 2--------| 0-------------------------- 0--|
G| 2------ 2---- 2---- 2---- 4 2--| 2------ 2---- 2-------- 1------|
D|---- 2------ 2------ 2----------|---- 0------ 0------ 0----------|
A| 0-------------- 0--------------|--------------------------------|
E|--------------------------------| 0-------------- 0--------------|
http://classicalguitartablature.blogspot.com/
E|--------------------------------|--------------------------------|
B| 2------------------------------|---------------------------- 2--|
G| 2------ 2------------ 2-- 4----| 4 2 2-- 2-- 4---- 2------------|
D|---- 2-------------- 2----------| 4---- 4------------ 4----------|
A| 0------------ 0 0--------------|--------------------------------|
E|--------------------------------| 2-------------- 2------ 2------|
http://classicalguitartablature.blogspot.com/
E|--------------------------------|---------------------------- 9--|
B| 3-------------------------- 2--| 3-- 2-- 0-------------- 6------|
G| 2------ 2-------------- 2------| 2---------- 7---------- 7------|
D| 4-- 4-------------- 4----------| 0---------- 6------ 6----------|
A| 2------------ 2----------------|--------------------------------|
E|--------------------------------| 0-------------- 0--------------|
http://classicalguitartablature.blogspot.com/
E| 9------------------------------| 7---------- 7------------ 9--10|
B|10------10----------------12----|101010 710--10----10 7-------- 7|
G| 9------ 9-------------- 9------| 9 9 9 9 9-------- 9 9-------- 7|
D|----11--------------11----------|---- 7 7 7-------- 7 7----------|
A| 0------------ 0 0------------ 9|---------------- 9------ 9------|
E|--------------------------------|--------------------------------|
http://classicalguitartablature.blogspot.com/
E|-------------------------- 9----|10 9-- 7--10---------------- 9--|
B|--------------------------------| 7 7-- 7-- 7---------- 7--------|
G|------ 7-------------- 7------ 7|------ 7---- 7---- 7------------|
D|-- 7-------------- 7------------|--------------------------------|
A|--------------------------------|--------------------------------|
E| 7------------ 7 7------------ 0|---------------- 0--------------|
http://classicalguitartablature.blogspot.com/
E| 9------------------------------| 5------------------------------|
B|101210--------------------------| 2------------------------------|
G| 9 9 9------------------ 9------| 2------ 2------------ 2--------|
D|--1111--11----------11------11--|---- 2-------------- 2------ 2--|
A| 0------------ 0 0--------------|--------------------------------|
E|--------------------------------| 2------------ 2 2--------------|
http://classicalguitartablature.blogspot.com/
E|--------------------------------|--------------------------------|
B| 3---- 2------------------------|--------------------------------|
G| 2---- 2-------- 4------ 2------|-- 2----------------------------|
D|---- 4------ 2---- 4-------- 0--| 2------------------------------|
A| 2---- 4------ 5----------------| 0------------------------------|
E|------------------------ 0------|--------------------------------|
http://classicalguitartablature.blogspot.com/

0 ความคิดเห็น:

แสดงความคิดเห็น