To celebrate the anniversary, I am giving you (finally...) : iPhone LickByNeck !!!!!!

Ben - Michael Jackson

Michael Jackson's tune fingerstyle chord melody guitar BASIC arrangement played in the key of F.

Classical Guitar Tablature : http://classicalguitartablature.blogspot.com/
Ben - Michael Jackson - BASIC ARRANGEMENT played in the key of F
Classical Guitar Tablature : http://classicalguitartablature.blogspot.com/
E|-------- 1----------------------|-------- 1----------------------|
B|---- 1-------------- 3-- 1------|---- 1-------------- 3-- 1------|
G| 2---------- 2-- 3---------- 3--| 2---------- 2-- 3---------- 3--|
D|--------------------------------|--------------------------------|
A|--------------------------------|--------------------------------|
E| 1------------------------------| 1------------------------------|
Classical Guitar Tablature : http://classicalguitartablature.blogspot.com/
E|--------------------------------|---- 3 3------------------------|
B| 1---------- 3-- 1-- 0-- 1-- 3--| 1-------------------------- 1--|
G| 2------ 2------ 2-- 2-- 2------| 0---------------------- 0------|
D| 3-- 3---------- 3------ 3------| 2------------------ 2----------|
A|--------------------------------|--------------------------------|
E| 1-------------- 1--------------| 0---------- 0-- 0--------------|
Classical Guitar Tablature : http://classicalguitartablature.blogspot.com/
Classical Guitar Tablature : http://classicalguitartablature.blogspot.com/
E|--------------------------------|---- 6-- 6----------------------|
B| 1---------- 3-- 1-- 0-- 1-- 3--|---- 8-- 8--------------------10|
G| 2------ 2------ 2-- 2-- 2------| 5-- 5-- 5-------------- 5---- 9|
D| 3-- 3---------- 3------ 3------| 5------------------ 5------ 5--|
A|--------------------------------|--------------------------------|
E| 1-------------- 1--------------| 0---------- 0-- 0--------------|
Classical Guitar Tablature : http://classicalguitartablature.blogspot.com/
E|--------------------------------|------------ 6 5---- 4 5---- 6--|
B|------------11--10-- 9--10--11--|10-------- 5-- 5------ 5--------|
G|-------- 9-- 9-- 9-- 9-- 9-- 9--| 7------ 7---- 3------ 3--------|
D|10--10------10--10--10--10--10--|---- 8--------------------------|
A| 8-------------- 8--------------| 7---------- 5 4----------------|
E|------------ 8------------------|--------------------------------|
Classical Guitar Tablature : http://classicalguitartablature.blogspot.com/
E| 5-------- 6---- 5-- 4-- 5 6-- 3|------------ 5------------------|
B| 8-------------- 4-- 4 4-- 4----| 6-------------- 8-- 7-- 8--10--|
G| 5---- 5-------- 5-- 5-- 5 5----| 3------ 3------ 7--------------|
D|---- 7--------------------------|---- 5---------- 8--------------|
A| 6-------------- 5--------------| 4------------------------------|
E|--------------------------------|---------------- 8--------------|
Classical Guitar Tablature : http://classicalguitartablature.blogspot.com/
E| 1------ 1----------------------|-------- 1----------------------|
B| 1-- 1-------------- 3-- 1------|---- 1-------------- 3-- 1------|
G| 2---------- 2-- 3---------- 3--| 2---------- 2-- 3---------- 3--|
D|--------------------------------|--------------------------------|
A|--------------------------------|--------------------------------|
E| 1------------------------------| 1------------------------------|

E|--------------------------------|---- 3 3------------------------|
B| 1---------- 3-- 1-- 0-- 1-- 3--| 1-------------------------- 1--|
G| 2------ 2------ 2-- 2-- 2------| 0---------------------- 0------|
D| 3-- 3---------- 3------ 3------| 2------------------ 2----------|
A|--------------------------------|--------------------------------|
E| 1-------------- 1--------------| 0---------- 0-- 0--------------|
Classical Guitar Tablature : http://classicalguitartablature.blogspot.com/
E|--------------------------------|---- 6-- 6----------------------|
B| 1---------- 3-- 1-- 0-- 1-- 3--|---- 8-- 8--------------------10|
G| 2------ 2------ 2-- 2-- 2------| 5-- 5-- 5-------------- 5---- 9|
D| 3-- 3---------- 3------ 3------| 5------------------ 5------ 5--|
A|--------------------------------|--------------------------------|
E| 1-------------- 1--------------| 0---------- 0-- 0--------------|
Classical Guitar Tablature : http://classicalguitartablature.blogspot.com/
E|--------------------------------|------------ 6 5---- 4 5---- 6--|
B|------------11--10-- 9--10--11--|10-------- 5-- 5------ 5--------|
G|-------- 9-- 9-- 9-- 9-- 9-- 9--| 7------ 7---- 3------ 3--------|
D|10--10------10--10--10--10--10--|---- 8--------------------------|
A| 8-------------- 8--------------| 7---------- 5 4----------------|
E|------------ 8------------------|--------------------------------|
Classical Guitar Tablature : http://classicalguitartablature.blogspot.com/
E| 5-------- 6---- 5-- 4-- 5 6-- 3|------------ 5------------------|
B| 8-------------- 4-- 4 4-- 4----| 6-------------- 8-- 7-- 8--10--|
G| 5---- 5-------- 5-- 5-- 5 5----| 3------ 3------ 7--------------|
D|---- 7--------------------------|---- 5---------- 8--------------|
A| 6-------------- 5--------------| 4------------------------------|
E|--------------------------------|---------------- 8--------------|
Classical Guitar Tablature : http://classicalguitartablature.blogspot.com/
E| 1------ 1----------------------|------ 1-------------------- 1--|
B| 1-- 1-------------- 3-- 1------|---- 1-------------- 3-- 1------|
G| 2---------- 2-- 3---------- 3--| 2---------- 2-- 3--------------|
D|--------------------------------|--------------------------------|
A|--------------------------------|--------------------------------|
E| 1------------------------------| 1------------------------------|
Classical Guitar Tablature : http://classicalguitartablature.blogspot.com/
E|---- 8-- 8----------------------|-- 5---- 5----------------------|
B| 8-------------------------- 5 5|-------------------------- 1-- 3|
G|10---------------------- 5---- 5|---------------------- 2------ 3|
D| 8------------------ 5----------| 7---------------- 3---------- 3|
A|10---------- 8-- 7--------------| 8------------------------------|
E|--------------------------------|------------ 8-- 1------------ 3|
Classical Guitar Tablature : http://classicalguitartablature.blogspot.com/
E|-- 3-- 3------------------------|---------------------------- 1--|
B|---------------------------- 1--|---- 6-- 6----------------------|
G|------------------------ 0------| 5-------------------- 2--------|
D|-------------------- 2----------| 7---------------- 3------------|
A|--------------------------------| 8------------------------------|
E|------------ 1-- 0--------------|------------ 8-- 1--------------|
Classical Guitar Tablature : http://classicalguitartablature.blogspot.com/
E|---- 8-- 8----------------------|-- 5---- 5----------------------|
B| 8-------------------------- 5 5|-------------------------- 1-- 3|
G|10---------------------- 5---- 5|---------------------- 2------ 3|
D| 8------------------ 5----------| 7---------------- 3---------- 3|
A|10---------- 8-- 7--------------| 8------------------------------|
E|--------------------------------|------------ 8-- 1------------ 3|
Classical Guitar Tablature : http://classicalguitartablature.blogspot.com/
E|-- 3-- 3------------------------|---------------------------- 1--|
B|---------------------------- 1--|---- 6-- 6----------------------|
G|------------------------ 0------| 5-------------------- 2--------|
D|-------------------- 2----------| 7---------------- 3------------|
A|--------------------------------| 8------------------------------|
E|------------ 1-- 0--------------|------------ 8-- 1--------------|
Classical Guitar Tablature : http://classicalguitartablature.blogspot.com/
E|--------------------------------|---- 3 3------------------------|
B| 1---------- 3-- 1-- 0-- 1-- 3--| 1-------------------------- 1--|
G| 2------ 2------ 2-- 2-- 2------| 0---------------------- 0------|
D| 3-- 3---------- 3------ 3------| 2------------------ 2----------|
A|--------------------------------|--------------------------------|
E| 1-------------- 1--------------| 0---------- 0-- 0--------------|
Classical Guitar Tablature : http://classicalguitartablature.blogspot.com/
E|--------------------------------|---- 6-- 6----------------------|
B| 1---------- 3-- 1-- 0-- 1-- 3--|---- 8-- 8----------------------|
G| 2------ 2------ 2-- 2-- 2------| 5-- 5-- 5-------------- 5------|
D| 3-- 3---------- 3------ 3------| 5------------------ 5------ 5--|
A|--------------------------------|--------------------------------|
E| 1-------------- 1--------------| 0---------- 0-- 0--------------|
Classical Guitar Tablature : http://classicalguitartablature.blogspot.com/
E| 8--------10---- 8-- 7-- 8--10--| 8----------10 8---- 7-- 8--10--|
B| 8------ 8 8---- 8-- 8-- 8-- 8--| 8------ 8---- 8---- 8-- 8-- 8--|
G| 7-- 7------ 7-- 7-- 7-- 7-- 7--| 7-- 7-------- 7---- 7-- 7-- 7--|
D|--------------------------------|--------------------------------|
A| 8-------------- 8--------------| 7-------------- 7--------------|
E|------------ 8------------------|------------ 8------------------|
Classical Guitar Tablature : http://classicalguitartablature.blogspot.com/
E| 6---------- 8-- 6-- 5-- 6-- 8 3|-- 5-------- 5 4 3-- 2-- 3------|
B| 8------ 8-- 8-- 7-- 7-- 7-- 7--| 6------ 6------ 1---------- 1--|
G| 5-- 5------ 5-- 5-- 5-- 5-- 5--| 3-- 3---------- 0--------------|
D|--------------------------------|--------------------------------|
A| 6---------- 6-- 5--------------| 4-------------- 3--------------|
E|--------------------------------|--------------------------------|
Classical Guitar Tablature : http://classicalguitartablature.blogspot.com/
E| 1------ 1----------------------|-------- 1----------------------|
B| 1-- 1-------------- 3-- 1------|---- 1-------------- 3---- 1----|
G| 2---------- 2-- 3---------- 3--| 2---------- 2-- 3--------------|
D|--------------------------------|--------------------------------|
A|--------------------------------|--------------------------------|
E| 1------------------------------| 1------------------------------|
Classical Guitar Tablature : http://classicalguitartablature.blogspot.com/
E|--------------------------------|--------------------------------|
B|--------------------------------|--------------------------------|
G| 3------------------ 2----------|--------------------------------|
D|--------------------------------|--------------------------------|
A|--------------------------------|--------------------------------|
E|------------------ 1------------|--------------------------------|
Classical Guitar Tablature : http://classicalguitartablature.blogspot.com/

0 ความคิดเห็น:

แสดงความคิดเห็น