To celebrate the anniversary, I am giving you (finally...) : iPhone LickByNeck !!!!!!

How Do I Live - Leanne Rimes

Leanne Rimes' tune fingerstyle chord melody guitar BASIC arrangement played in the key of D.

Classical Guitar Tablature : http://classicalguitartablature.blogspot.com/
How Do I Live - Leanne Rimes - BASIC ARRANGEMENT played in the key of D
Classical Guitar Tablature : http://classicalguitartablature.blogspot.com/
E|--------------------------------|-------- 2----------------------|
B|---------------------------- 3--| 3---- 3 3-- 5---------- 5------|
G| 0-- 0------ 2------ 2-- 2 4-- 4| 2---- 2 2-- 2------ 2------ 2--|
D| 0-- 0------ 2---- 2-- 2--------| 4---- 4---- 2---- 2------------|
A|---------- 0 0------------------| 5---------- 0------------------|
E| 3------ 3----------------------|--------------------------------|
Classical Guitar Tablature : http://classicalguitartablature.blogspot.com/
E|10 9---- 9-- 5------------------|-------- 2----------------------|
B|12----12---- 2-------- 2---- 3--| 3-- 3 3---- 5-------- 5--------|
G|11---------- 2------ 2-- 2 4-- 4| 2-- 2-- 2-- 2---- 2------ 2----|
D|------------------ 2------------| 4-- 4------ 2-- 2--------------|
A|10------------------------------| 5---------- 0------------------|
E|------------ 2------------------|--------------------------------|
Classical Guitar Tablature : http://classicalguitartablature.blogspot.com/
E|10 9---- 9-- 5------------------| 0---------------------- 4-- 2--|
B|12----12---- 5---------- 5-- 4--| 0-- 2 0------ 0---- 0----------|
G|11---------- 2------ 2-- 2-- 2--| 1-- 1 1---- 1---- 1------------|
D|------------------ 2---- 4-- 4--|---- 2 2-- 2--------------------|
A|10---------- 0---------- 2------|------------------------------ 6|
E|--------------------------------| 0------------------------------|
Classical Guitar Tablature : http://classicalguitartablature.blogspot.com/
E|------------------------------ 0|---------------------------- 0 4|
B| 7-------------------------- 4 2|-------- 0------------------ 2 2|
G| 4-- 4 4 6-- 4---- 4-- 4 4 6-- 2|---- 2------ 2------ 2-- 2------|
D| 4-------------- 4-- 4 4--------|---------------- 2---- 2--------|
A|---------------------- 6--------| 0---------------------- 0------|
E|--------------------------------|--------------------------------|
Classical Guitar Tablature : http://classicalguitartablature.blogspot.com/
E|-- 5-- 4---- 2------------------|---- 4------------------ 4 4----|
B|---- 2------ 2---------- 5 4----| 5 7---- 5------------------ 7--|
G| 2-- 2-- 2-- 2---- 2------------| 4-------- 4---------- 4--------|
D|---------------------- 2------ 6|------------ 6------ 6----------|
A| 2-------------- 2--------------|--------------------------------|
E|------------------------------ 0|---------------- 0--------------|
Classical Guitar Tablature : http://classicalguitartablature.blogspot.com/
E|---------- 4-- 5-------- 4------|-------- 2----------------------|
B| 7 7-- 7-- 7-- 7---------- 5-- 5|-- 5-- 5------ 5------------ 5 7|
G| 4 4-- 4-- 4-- 4---- 4----------| 2 2-- 2------------ 2---- 2----|
D| 4 4-- 4---------- 4-- 4 4------| 2-- 2 2---------- 2-- 2 2---- 4|
A| 6-------------------- 6--------| 0---------------------- 0------|
E|--------------------------------|--------------------------------|
Classical Guitar Tablature : http://classicalguitartablature.blogspot.com/
E|------------ 4---------------- 4|-- 2 4-- 4-- 2 4-- 2-- 2---- 2--|
B|---- 7-- 5-- 5---- 7 5------ 7 2|-- 2 2 2 2-- 2 2-- 2-- 2---- 2 7|
G| 4-- 4-- 4-- 4---- 4 4---- 4-- 2|-- 2 2 2 2-- 2 2-- 2-- 2---- 2 4|
D|---- 4-- 4-------- 6 6-- 6-- 6--|--------------------------------|
A|------------ 4------------------| 0-------------- 0--------------|
E| 4------------------------------|--------------------------------|
Classical Guitar Tablature : http://classicalguitartablature.blogspot.com/
E|------ 7-- 4--------------------|-------- 5---- 2-------- 0------|
B|-- 7-- 7-- 5---- 7 5------ 5----|---- 3 3---- 3 3------------ 3--|
G|-- 4-- 4---- 4-- 4 4------ 4-- 4|---- 4 4---- 4 4---- 4----------|
D| 4 4------------ 6 6---- 6------|-------- 0----------------------|
A|------------ 4------------------| 0---------------------------- 5|
E| 4------------------------------|--------------------------------|
Classical Guitar Tablature : http://classicalguitartablature.blogspot.com/
E|-------- 5 5-- 5----------------|--------------------------------|
B|---- 7 7 7 7-- 2------ 2---- 2--|-- 3-------- 3 3------ 5-- 3----|
G|---- 7 7 7 7-- 2---- 2------ 0--|---------- 0-- 2-- 2------------|
D|-- 7-- 7---------- 2-------- 0--|------ 0------ 2----------------|
A|-------------- 0----------------|------------------------------ 5|
E|---------------------------- 3--|-------------- 2----------------|
Classical Guitar Tablature : http://classicalguitartablature.blogspot.com/
E|-------- 5 5-- 5----------------|-------------- 3-- 2------------|
B|---- 7 7 7 7-- 2------ 2---- 2--|-- 3-------- 3 2-- 2-- 5-- 3----|
G|---- 7 7 7 7-- 2---- 2------ 0--|---------- 0-- 2-- 2-- 2-- 2----|
D|-- 7-- 7---------- 2-------- 0--|------ 0-------------- 2-- 2----|
A|-------------- 0----------------|------------------------------ 2|
E|---------------------------- 3--|-------------- 2----------------|
Classical Guitar Tablature : http://classicalguitartablature.blogspot.com/
E|-------- 0---- 7-- 5------------|------ 9--10--------------------|
B|------ 3-- 3-- 0-- 0-------- 010|--12------12--------------------|
G|---- 2-------- 0-- 0------ 0-- 9|-- 9------11--------------------|
D|-- 0-------------------- 0----11|--11----------------------------|
A|------------------------------ 9|------------10------------------|
E|-------------- 0----------------|--------------------------------|
Classical Guitar Tablature : http://classicalguitartablature.blogspot.com/
E|------------------------ 0------|-------- 0----------------------|
B|-------------------- 3 3---- 3--|------ 3-- 3-- 3------ 5-- 3----|
G|--------------------------------|------ 0------ 2-- 2------ 2----|
D|--------------------------------|-- 4-- 4------ 2---------- 4----|
A|--------------------------------|-------------- 0----------------|
E|--------------------------------| 0------------------------------|
Classical Guitar Tablature : http://classicalguitartablature.blogspot.com/
E|--------------------------------|---------------------- 2-- 5 2 7|
B|--------------------------------|------------ 2---------- 2-- 2 7|
G|------ 2---- 2-------- 2--------| 0---- 0---- 2---------- 2 2 2 7|
D|------ 4---- 2------ 2------ 2--| 0---- 0---- 2------ 2----------|
A| 5-------- 0 0------------------|--------------------------------|
E|--------------------------------| 3-------- 0 2------------------|
Classical Guitar Tablature : http://classicalguitartablature.blogspot.com/
E|---- 5--------------------------|--------------------------------|
B|---- 7------ 5-------- 5--------|-------------- 3------------ 5--|
G|---- 7---- 6------ 6-------- 6--| 0---- 0------ 2------ 2--------|
D|------------ 7-- 7--------------| 0---- 0------ 2----------------|
A| 5------------------------------|--------------------------------|
E|------------ 5------------------| 3---------- 0 2----------------|
Classical Guitar Tablature : http://classicalguitartablature.blogspot.com/
E|--------------------------------|--------------------------------|
B|---- 3-------- 3----------------|--------------------------------|
G|------------ 0------------------|--------------------------------|
D|------------ 4------------------|--------------------------------|
A|------------ 5------------------|--------------------------------|
E|--------------------------------|--------------------------------|
Classical Guitar Tablature : http://classicalguitartablature.blogspot.com/

0 ความคิดเห็น:

แสดงความคิดเห็น