To celebrate the anniversary, I am giving you (finally...) : iPhone LickByNeck !!!!!!

I Only Want To Be With You

Dusty Springfield's tune fingerstyle chord melody guitar BASIC arrangement played in the key of G.

Classical Guitar Tablature : http://classicalguitartablature.blogspot.com/
I Only Want To Be With You-Dusty Springfield - BASIC ARRANGEMENT played in the key of G
Classical Guitar Tablature : http://classicalguitartablature.blogspot.com/
E| 8------ 7---------------- 7----|-- 5-- 5---------- 5-------- 7--|
B| 5------ 7------10-- 8---- 5----|-- 5-- 5------ 8-- 5------------|
G| 5------ 7------ 9-- 9---- 5----|-------------- 5-- 5-------- 5--|
D|---- 5------ 7--10-- 9----------|------------ 5 5----------------|
A|------------------------------ 5|---------------------- 5--------|
E| 5------ 7------ 8-- 9----------|--------------------------------|
Classical Guitar Tablature : http://classicalguitartablature.blogspot.com/
E| 8-- 7 5------ 5-- 5-------- 3--|--------------------------------|
B| 5---- 5-- 8-- 5-- 5------ 0----|-------- 1---- 0------------ 3--|
G| 5-- 5 5-- 5-- 5---- 5---- 0----|-------- 0---- 0-------- 0------|
D|---------- 5------------ 5------|---- 0 2---- 2---- 0------------|
A|---------------- 5--------------|------------------------------10|
E| 5---------------------------- 3|--------------------------------|
Classical Guitar Tablature : http://classicalguitartablature.blogspot.com/
E| 7------------------------------| 0------------------------------|
B|10--10--10-- 8-- 8-- 7-- 7------| 0-- 0------ 0-------------- 3--|
G| 0-- 0-- 0------ 0---------- 9--| 0---------------------- 0------|
D|---- 9-- 9------ 9--------------|-------- 0---------- 0----------|
A|--------------10----------------|------------------------------10|
E|--------------------------------| 0-------------- 0--------------|
Classical Guitar Tablature : http://classicalguitartablature.blogspot.com/
E| 7------------------------------| 0------------------------------|
B|10--10--10-- 8-- 8-- 7-- 7------| 0-- 0------ 0------------ 0----|
G| 0-- 0-- 0------ 0---------- 9--|---------------------- 0--------|
D|---- 9-- 9------ 9--------------|-------- 0---------- 0----------|
A|--------------10----------------|--------------------------------|
E|--------------------------------| 0-------------- 0--------------|
Classical Guitar Tablature : http://classicalguitartablature.blogspot.com/
E|-------- 0 3-- 2-- 2------------|---- 7------ 5------------------|
B| 1------------ 3-- 3------ 0----|------------ 5------------------|
G| 0------------ 2----------------| 5---------- 5-------- 5---- 7 0|
D| 2-- 2---------- 4------ 4------| 5------ 5---------- 5----------|
A| 3-------------- 5--------------|---------------- 5------------10|
E|--------------------------------| 5------------------------------|
Classical Guitar Tablature : http://classicalguitartablature.blogspot.com/
E| 7------------------------------| 7-- 0------ 0------------ 0-- 8|
B|10--10--10 8---- 8 7---- 8--10--| 0---------------------------- 5|
G|---------------- 0--------------| 0-------------------- 0------ 5|
D|-------------- 9----------------|-------- 0---------- 0----------|
A|--------------10----------------|--------------------------------|
E|--------------------------------| 0-------------- 0------------ 5|
Classical Guitar Tablature : http://classicalguitartablature.blogspot.com/
E|------ 7------------------ 7----|-- 5-- 5---------- 5-------- 7--|
B|------ 7------10-- 8------ 5----|-- 5-- 5------ 8-- 5------------|
G|------ 7------ 9---- 9---- 5----|-------------- 5-- 5-------- 5--|
D|---- 5---- 7--10-- 9------------|------------ 5 5----------------|
A|------------------------------ 5|---------------------- 5--------|
E|-------- 7---- 8---- 9----------|--------------------------------|
Classical Guitar Tablature : http://classicalguitartablature.blogspot.com/
E| 8-- 7 5------ 5-- 5-------- 3--|--------------------------------|
B| 5---- 5-- 8-- 5-- 5-------- 0--|------ 1------ 0---------- 0----|
G| 5-- 5 5-- 5-- 5---- 5------ 0--|------ 0------ 0-------- 0------|
D|---------- 5------------ 5------|---- 0 2---- 2---- 0------------|
A|---------------- 5--------------|--------------------------------|
E| 5------------------------------| 3------------------------------|
Classical Guitar Tablature : http://classicalguitartablature.blogspot.com/
E|--------------------------------|--------------------------------|
B|------ 8------ 6-------- 6------| 8-- 8---- 6---------- 6------ 3|
G|------ 7------ 7------------ 8--| 7-- 7---- 7-------------- 8-- 0|
D|---- 8---- 8-------- 8----------| 8-- 8------------ 8---------- 0|
A| 6------------------------------| 6------------------------------|
E|--------------------------------|------------------------------ 3|
Classical Guitar Tablature : http://classicalguitartablature.blogspot.com/
E|-------------- 0---- 3------ 0--|--------------------------------|
B|------ 3------ 1-- 1-------- 0--|---- 3---------------------- 0--|
G|------ 0------ 0---- 0------ 0--|---- 0------ 0---------- 0---- 2|
D|-- 0------ 0-- 2----------------|-------- 0---------- 0-------- 4|
A|--------------------------------|------------------------------ 5|
E|-------------- 3----------------| 3-------------- 3--------------|
Classical Guitar Tablature : http://classicalguitartablature.blogspot.com/
E|---------------------------- 2--|---- 2------ 5------------ 5-- 3|
B|---------------- 3-- 3---- 3----|---- 3------ 3------------------|
G|-------- 2---- 2---- 2---- 2----|---------------------- 2------ 0|
D|---- 4------ 4------------------|-------- 4---------- 4----------|
A|--------------------------------| 2-------------- 2--------------|
E|--------------------------------|------------------------------ 0|
Classical Guitar Tablature : http://classicalguitartablature.blogspot.com/
E|-------- 3------ 2-- 3------ 5--|------ 5------ 7-- 5------ 5----|
B| 0------ 0------ 0---------- 5--|-------------- 5------ 8--------|
G|---- 0------ 0 0------ 0---- 5--|-- 5------ 7-- 5----------------|
D|--------------------------------|--------------------------------|
A|-------------- 0----------------|-------------- 5--------------10|
E|------------------------------ 5|--------------------------------|
Classical Guitar Tablature : http://classicalguitartablature.blogspot.com/
E| 7------------------------------| 0------------------------------|
B|10--10--10-- 8-- 8-- 7-- 7------| 0-- 0------ 0-------------- 3--|
G| 0-- 0-- 0------ 0---------- 9--| 0---------------------- 0------|
D|---- 9-- 9------ 9--------------|-------- 0---------- 0----------|
A|--------------10----------------|------------------------------10|
E|--------------------------------| 0-------------- 0--------------|
Classical Guitar Tablature : http://classicalguitartablature.blogspot.com/
E| 7------------------------------| 0------------------------------|
B|10--10--10-- 8-- 8-- 7-- 7------| 0-- 0------ 0------------ 0----|
G| 0-- 0-- 0------ 0---------- 9--|---------------------- 0--------|
D|---- 9-- 9------ 9--------------|-------- 0---------- 0----------|
A|--------------10----------------|--------------------------------|
E|--------------------------------| 0-------------- 0--------------|
Classical Guitar Tablature : http://classicalguitartablature.blogspot.com/
E|-------- 0 3-- 2-- 2------------|---- 7------ 5------------------|
B| 1------------ 3-- 3------ 0----|------------ 5------------------|
G| 0------------ 2----------------| 5---------- 5-------- 5---- 7 0|
D| 2-- 2---------- 4------ 4------| 5------ 5---------- 5----------|
A| 3-------------- 5--------------|---------------- 5------------10|
E|--------------------------------| 5------------------------------|
Classical Guitar Tablature : http://classicalguitartablature.blogspot.com/
E| 7------------------------------| 7-- 0------ 0------------ 0-- 8|
B|10--10--10 8---- 8 7---- 8--10--| 0---------------------------- 5|
G|---------------- 0--------------| 0-------------------- 0------ 5|
D|-------------- 9----------------|-------- 0---------- 0----------|
A|--------------10----------------|--------------------------------|
E|--------------------------------| 0-------------- 0------------ 5|
Classical Guitar Tablature : http://classicalguitartablature.blogspot.com/
E|------ 7------------------ 7----|-- 5-- 5---------- 5-------- 7--|
B|------ 7------10-- 8------ 5----|-- 5-- 5------ 8-- 5------------|
G|------ 7------ 9---- 9---- 5----|-------------- 5-- 5-------- 5--|
D|---- 5---- 7--10-- 9------------|------------ 5 5----------------|
A|------------------------------ 5|---------------------- 5--------|
E|-------- 7---- 8---- 9----------|--------------------------------|
Classical Guitar Tablature : http://classicalguitartablature.blogspot.com/
E| 8-- 7 5------ 5-- 5-------- 3--|---------------------------- 0--|
B| 5---- 5-- 8-- 5-- 5-------- 0--|-------- 1------ 0--------------|
G| 5-- 5 5-- 5-- 5---- 5------ 0--|-------- 0---- 0-------- 0------|
D|---------- 5------------ 5------|---- 0---- 2-------- 0----------|
A|---------------- 5--------------|--------------------------------|
E| 5---------------------------- 3|--------------------------------|
Classical Guitar Tablature : http://classicalguitartablature.blogspot.com/
E| 8------ 7---------------- 7----|-- 5-- 5---------- 5-------- 7--|
B| 5------ 7----10---- 8---- 5----|-- 5-- 5------ 8-- 5------------|
G| 5------ 7------ 9-- 9---- 5----|-------------- 5-- 5-------- 5--|
D|---- 5------ 7--10-- 9----------|------------ 5 5----------------|
A|------------------------------ 5|---------------------- 5--------|
E| 5------ 7------ 8-- 9----------|--------------------------------|
Classical Guitar Tablature : http://classicalguitartablature.blogspot.com/
E| 8-- 7 5------ 5-- 5-------- 3--|--------------------------------|
B| 5---- 5-- 8-- 5-- 5-------- 0--|------ 1------ 0---------- 0----|
G| 5-- 5 5-- 5-- 5---- 5------ 0--|------ 0------ 0-------- 0------|
D|---------- 5------------ 5------|---- 0 2---- 2---- 0------------|
A|---------------- 5--------------|--------------------------------|
E| 5------------------------------| 3------------------------------|
Classical Guitar Tablature : http://classicalguitartablature.blogspot.com/
E|--------------------------------|--------------------------------|
B|-------- 1------ 0--------------| 0------------------------------|
G|-------- 0------ 0------ 0------|-------- 0----------------------|
D|-- 0-------- 2------ 0----------|--------------------------------|
A|--------------------------------|--------------------------------|
E| 3------------------------------|--------------------------------|
Classical Guitar Tablature : http://classicalguitartablature.blogspot.com/

0 ความคิดเห็น:

แสดงความคิดเห็น