To celebrate the anniversary, I am giving you (finally...) : iPhone LickByNeck !!!!!!

Mandy (BASIC)

Barry Manilow's tune fingerstyle chord melody guitar BASIC arrangement played in the key of C.

Mandy - Barry Manilow - BASIC ARRANGEMENT played in the key of C
Classical Guitar Tablature : http://classicalguitartablature.blogspot.com/
E|------------------ 0------------|------------------ 0------------|
B|------ 3-- 3---------- 1--------|------ 3-- 3---------- 1--------|
G| 0---- 0-- 0--------------------| 0---- 0-- 0-------------- 0----|
D| 2 2------------------------ 2--|---- 2--------------------------|
A| 3------------------------------| 3------------------------------|
E|--------------------------------|--------------------------------|
Classical Guitar Tablature : http://classicalguitartablature.blogspot.com/
E|------ 0---- 0------------------|------ 0---- 0 0------ 1---- 3--|
B| 0---- 0------------ 3-- 0------| 0------ 0---- 0----------------|
G| 0------------------------------| 0------------------------------|
D|---- 2---------------------- 2--|---- 2--------------------------|
A| 3------------------------------| 3------------------------------|
E|--------------------------------|--------------------------------|
Classical Guitar Tablature : http://classicalguitartablature.blogspot.com/
Classical Guitar Tablature : http://classicalguitartablature.blogspot.com/
E|------------ 5------------------|---------------------------- 0--|
B| 8------------------ 5----------|-------------- 1---- 3----------|
G| 5------ 5------------ 5--------|-------- 2---- 2---- 2----------|
D|---- 7---------------------- 7--|---- 3------ 3 3---- 3----------|
A| 8------------------------------|--------------------------------|
E|--------------------------------| 1------------------------------|
Classical Guitar Tablature : http://classicalguitartablature.blogspot.com/
E| 0---------- 1------------------|--------------------------------|
B|------------------ 3------------|------------ 3------------------|
G| 0---- 0------------------ 0----|------ 0------------ 0------ 0--|
D|---- 0--------------------------|-- 0-------------------- 0------|
A|--------------------------------|--------------------------------|
E| 3---------------------------- 3|--------------------------------|
Classical Guitar Tablature : http://classicalguitartablature.blogspot.com/
E|---------------- 0--------------|--------------------------------|
B|-------- 1----------------------|--------------------------------|
G| 0-- 2------ 2---------- 2 2----|-- 0-------- 0---------- 0------|
D| 2------------------------------|------ 2------------ 2------ 2--|
A| 3---------------------------- 3|--------------------------------|
E|--------------------------------|--------------------------------|
Classical Guitar Tablature : http://classicalguitartablature.blogspot.com/
E|---------------- 0--------------|--------------------------------|
B|-------- 1----------------------|--------------------------------|
G| 0-- 2------ 2---------- 2 2----|-- 0-------- 0---------- 0---- 7|
D| 2------------------------------|------ 2------------ 2------ 2 7|
A| 3---------------------------- 3|------------------------------ 5|
E|--------------------------------|--------------------------------|
Classical Guitar Tablature : http://classicalguitartablature.blogspot.com/
E|------------------------------ 1|---- 0---- 0--------------------|
B| 6-- 5---- 5------------------ 3|------------ 3 3----------------|
G|------------ 7-- 7------ 7------| 2------ 2-------- 2-------- 2--|
D|-------------------- 7------ 7--|---------------------- 0------ 3|
A|--------------------------------| 3------------------------------|
E|--------------------------------|------------------------------ 6|
Classical Guitar Tablature : http://classicalguitartablature.blogspot.com/
E|------------------------------ 1|---- 3-- 0----------------------|
B| 6-- 5---- 5 3 3----------------| 0------ 0-- 3------------------|
G| 3-- 3---- 3 3 3-------- 3------| 2-- 2-- 2-------------- 2-- 0--|
D|-------- 3---------- 3------ 7--|-------------------- 3----------|
A|--------------------------------|--------------------------------|
E|--------------------------------| 3-------------- 3--------------|
Classical Guitar Tablature : http://classicalguitartablature.blogspot.com/
E|---------------- 0--------------|--------------------------------|
B|-------- 1----------------------|--------------------------------|
G| 0-- 2------ 2---------- 2 2----|-- 0-------- 0---------- 0------|
D| 2------------------------------|------ 2------------ 2------ 2--|
A| 3---------------------------- 3|--------------------------------|
E|--------------------------------|--------------------------------|
Classical Guitar Tablature : http://classicalguitartablature.blogspot.com/
E|---------------- 0--------------|--------------------------------|
B|-------- 1----------------------|--------------------------------|
G| 0-- 2------ 2---------- 2 2----|-- 0-------- 0---------- 0---- 7|
D| 2------------------------------|------ 2------------ 2------ 2 7|
A| 3---------------------------- 3|------------------------------ 5|
E|--------------------------------|--------------------------------|
Classical Guitar Tablature : http://classicalguitartablature.blogspot.com/
E|------------------------------ 1|---- 0---- 0--------------------|
B| 6-- 5---- 5------------------ 3|------------ 3 3----------------|
G|------------ 7-- 7------ 7------| 2------ 2-------- 2-------- 2--|
D|-------------------- 7------ 7--|---------------------- 0--------|
A|--------------------------------| 3------------------------------|
E|--------------------------------|--------------------------------|
Classical Guitar Tablature : http://classicalguitartablature.blogspot.com/
E|---- 3--------------------------|-- 3----------------------------|
B| 6-------- 6 5-- 3--------------| 6------ 5-- 3------ 5------ 3--|
G| 3---------------------- 3------| 5-------------------------- 0--|
D| 3------ 3---------- 3------ 7--| 3-------------------------- 2--|
A|--------------------------------|--------------------------------|
E| 6------------------------------| 3-------------- 3--------------|
Classical Guitar Tablature : http://classicalguitartablature.blogspot.com/
E|---------------------- 0--------|------ 0-------------- 0--------|
B|---- 1-------------------- 3----|-- 1------ 3------ 1-------- 3--|
G|------------ 0------ 0----------|-- 0---------- 2-- 2------------|
D|-------- 2----------------------|---- 2------------ 3-------- 0--|
A| 3---------------------------- 0|--------------------------------|
E|--------------------------------|-------------- 1-------------- 3|
Classical Guitar Tablature : http://classicalguitartablature.blogspot.com/
E|--------------------------------| 1-- 0-- 1---------- 0----------|
B|-- 0----------------------------| 1-- 1-- 1-- 3-------------- 3--|
G|---- 2 0---------------- 0-- 0--| 2-- 2-- 2-- 0-------------- 0--|
D|---------- 0-------- 0----------|------------ 0-------------- 2--|
A|--------------------------------|--------------------------------|
E|---------------- 3--------------| 1------------ 3----------------|
Classical Guitar Tablature : http://classicalguitartablature.blogspot.com/
E|---------------------- 0--------|------ 0-------------- 0--------|
B|---- 1-------------------- 3----|-- 1------ 3------ 1-------- 3--|
G|------------ 0------ 0----------|-- 0---------- 2-- 2------------|
D|-------- 2----------------------|---- 2------------ 3-------- 0--|
A| 3---------------------------- 0|--------------------------------|
E|--------------------------------|-------------- 1-------------- 3|
Classical Guitar Tablature : http://classicalguitartablature.blogspot.com/
E|--------------------------------| 1-- 0-- 1---------- 0-------- 5|
B|-- 0----------------------------| 1-- 1-- 1-- 3-------------- 3--|
G|---- 2 0---------------- 0-- 0--| 2-- 2-- 2-- 0------------------|
D|---------- 0-------- 0----------|------------ 0------------------|
A|--------------------------------|--------------------------------|
E|---------------- 3--------------| 1------------ 3----------------|
Classical Guitar Tablature : http://classicalguitartablature.blogspot.com/
E|-------------- 5---- 7---- 8----| 7------------ 7---- 8----10-- 8|
B|---------------- 5-- 5---- 5----| 8---------- 8 8--------------10|
G|---- 5---------- 5-- 5---- 5----| 9---- 9------ 9-------------- 9|
D|-------- 5----------------------|---- 9--------------------------|
A| 0-------------- 0--------------|--------------------------------|
E|--------------------------------| 0-------------- 0--------------|
Classical Guitar Tablature : http://classicalguitartablature.blogspot.com/
E|--------------------10----12----|12----------13----10------------|
B|----------10--------------------|10------------------------13----|
G|------ 9------------ 9----------|10------10----------------------|
D|----10--------------------------|----10------------------10------|
A| 8------------ 8----------------|--------------------------------|
E|--------------------------------|10--------------10--------------|
Classical Guitar Tablature : http://classicalguitartablature.blogspot.com/
E|10------------------------------|--------------------------------|
B|10----------10--------------10--|-- 5------ 5-------------- 5----|
G|10------10------------10--------|-- 7-- 7 7---- 7------ 7--------|
D|----10--------------10----------| 7------------ 7---- 7----------|
A|10--------------10--------------| 5------------ 5----------------|
E|--------------------------------|--------------------------------|
Classical Guitar Tablature : http://classicalguitartablature.blogspot.com/
E|--------------------------------|------------------------------ 1|
B| 5-- 6-- 5 5--------------------| 5-- 6-- 5-- 3-- 3------------ 0|
G|------------ 7-- 7------ 7------| 3-- 3-- 3-- 3-- 3------ 3---- 2|
D| 5-------------- 5-- 5------ 7--| 3-- 3-- 3-- 3------ 3------ 7--|
A|--------------------------------|--------------------------------|
E| 8-------------- 8--------------| 6-------------- 6--------------|
Classical Guitar Tablature : http://classicalguitartablature.blogspot.com/
E|------ 0-- 1------ 3-- 0--------|---------------------- 0--------|
B|------ 0-- 0-------- 0 0---- 3--|---- 1-------------------- 3----|
G|-- 2-- 2-- 2------ 2-- 2---- 0--|------------ 0------ 0----------|
D|---------------------------- 2--|-------- 2----------------------|
A|--------------------------------| 3---------------------------- 0|
E| 3-------------- 3--------------|--------------------------------|
Classical Guitar Tablature : http://classicalguitartablature.blogspot.com/
E|------ 0-------------- 0--------|--------------------------------|
B|-- 1------ 3------ 1-------- 3--|-- 0----------------------------|
G|-- 0---------- 2-- 2------------|---- 2 0---------------- 0-- 0--|
D|---- 2------------ 3-------- 0--|---------- 0-------- 0----------|
A|--------------------------------|--------------------------------|
E|-------------- 1-------------- 3|---------------- 3--------------|
Classical Guitar Tablature : http://classicalguitartablature.blogspot.com/
E| 1-- 0-- 1---------- 0----------|---------------------- 0--------|
B| 1-- 1-- 1-- 3-------------- 3--|---- 1-------------------- 3----|
G| 2-- 2-- 2-- 0-------------- 0--|------------ 0------ 0----------|
D|------------ 0-------------- 2--|-------- 2----------------------|
A|--------------------------------| 3---------------------------- 0|
E| 1------------ 3----------------|--------------------------------|
Classical Guitar Tablature : http://classicalguitartablature.blogspot.com/
E|------ 0-------------- 0--------|--------------------------------|
B|-- 1------ 3------ 1-------- 3--|-- 0----------------------------|
G|-- 0---------- 2-- 2------------|---- 2 0---------------- 0-- 0--|
D|---- 2------------ 3-------- 0--|---------- 0-------- 0----------|
A|--------------------------------|--------------------------------|
E|-------------- 1-------------- 3|---------------- 3--------------|
Classical Guitar Tablature : http://classicalguitartablature.blogspot.com/
E| 1-- 0-- 1---------- 0----------|--------------------------------|
B| 1-- 1-- 1-- 3-------------- 3--|---- 1--------------------------|
G| 2-- 2-- 2-- 0-------------- 0--|--------------------------------|
D|------------ 0-------------- 2--|--------------------------------|
A|------------------------------ 3|--------------------------------|
E| 1------------ 3----------------|--------------------------------|
Classical Guitar Tablature : http://classicalguitartablature.blogspot.com/

0 ความคิดเห็น:

แสดงความคิดเห็น