-----[FreeSplanS.com]-----ศูนย์รวมแบบบ้าน และ ตกแต่ง หลากหลายสไตล์-----

Those Were The Days

Mary Hopkin's tune fingerstyle chord melody guitar BASIC arrangement played in the key of F#m.

Classical Guitar Tablature : http://classicalguitartablature.blogspot.com/
Those Were The Days - Mary Hopkin - BASIC ARRANGEMENT played in the key of F#m
Classical Guitar Tablature : http://classicalguitartablature.blogspot.com/
E|------ 5------ 5------ 4--------| 4-- 2-- 2-- 2------ 2-- 2------|
B|------ 6------ 6------ 6--------| 2-- 2-- 2-- 2------ 2 2---- 5--|
G|---------- 4-------- 4------ 4--| 2-- 2-- 2-- 2------ 2 3---- 3 2|
D|---- 6--------------------------|---------------------------- 2--|
A| 4------------------------------|-------- 4-------------- 4------|
E|--------------------------------| 2-------------- 2--------------|
Classical Guitar Tablature : http://classicalguitartablature.blogspot.com/
E| 0------------------------------|-------------- 5-- 4------------|
B| 3-- 3 3---- 3---- 0-- 2-- 3-- 2|---------- 6-- 6-- 6-- 7-- 6----|
G|---- 2 2---- 2---- 2-- 2-- 2-- 4|---------- 4---- 4 4-- 4-- 4----|
D|---- 0-- 0-- 0---- 0-- 0-- 0----|---- 3---- 6---------- 6---- 6--|
A| 2-------------- 2--------------| 4-------------- 4--------------|
E|-------- 2-------------- 2------|------ 4---------------- 4------|
Classical Guitar Tablature : http://classicalguitartablature.blogspot.com/
E| 2-------------- 5-- 4-- 2------|--------------------------------|
B| 2---------- 2-------------- 2--|---------------- 2 0------------|
G| 2------ 2----------------------| 2------ 2-- 2---------- 2-- 1--|
D|---- 2--------------------------|---- 2--------------------------|
A|--------------------------------|--------------------------------|
E| 2------------------------------| 2------------------------------|
Classical Guitar Tablature : http://classicalguitartablature.blogspot.com/
E| 2---- 2 4 5---- 7--------------| 5-- 2--------------------------|
B| 2---- 2 2-- 2--10--10-- 9-- 7--| 2-------------------------- 2--|
G| 2 2---- 2-- 2 9-------------- 2|------------ 2---------- 2------|
D|--------------------------------|-------- 2---------- 2-------- 2|
A|-------------- 9----------------|--------------------------------|
E| 2---------------------------- 2|---------------- 2------------ 2|
Classical Guitar Tablature : http://classicalguitartablature.blogspot.com/
E|-------------- 2----------------|---------------------------- 2--|
B| 2-- 2 3 5------ 2 2-- 3---- 2--| 0------------------------------|
G| 3-- 3 3 3---- 3-- 3-- 3---- 3--| 2------ 2-------------- 2------|
D|---- 2 2 2-------- 2-- 2---- 2--|---- 0------ 0------ 0----------|
A|--------------------------------| 2-------------- 2--------------|
E|-------------- 2----------------|------------------------------ 7|
Classical Guitar Tablature : http://classicalguitartablature.blogspot.com/
E|---------------- 7--------------| 5 2---------------------- 2-- 4|
B| 7---- 7 910---- 7--10-- 9-- 7--| 2 2-------------------------- 4|
G| 7---- 7 7 7-- 7---- 7-- 7-- 7--| 2 2-------- 2-------- 2------ 5|
D| 7---- 7 7 7-------- 7-- 7-- 7--|-------- 2-------- 2------------|
A|--------------------------------|--------------------------------|
E|-------------- 7----------------| 2------------ 0----------------|
Classical Guitar Tablature : http://classicalguitartablature.blogspot.com/
E|---- 4 4---- 4 4----------------| 4------------------------------|
B|---- 4 4---- 4 4-- 4---- 6-- 7--| 6---------- 6-------------- 6--|
G|---- 5 5---- 5-- 5 5---- 5-- 5--| 4------ 4-------------- 4------|
D|------------------ 4---- 4-- 4--|---- 6-------------- 6----------|
A|--------------------------------| 4------------------------------|
E| 4-------------- 4--------------|--------------------------------|
Classical Guitar Tablature : http://classicalguitartablature.blogspot.com/
E|-------- 5---- 5-------- 4------| 4-- 2-- 2-- 2------ 2-- 2------|
B| 6------ 6---- 6-------- 6------| 2-- 2-- 2-- 2------ 2 2---- 5--|
G| 4------ 4------ 4------ 4------| 2-- 2-- 2-- 2------ 2 3---- 3 2|
D| 6------------------------------|---------------------------- 2--|
A| 4------------------------------|-------- 4-------------- 4------|
E|--------------------------------| 2-------------- 2--------------|
Classical Guitar Tablature : http://classicalguitartablature.blogspot.com/
E| 0---------------------------- 0|------ 2---- 2-- 4-- 2-- 0------|
B| 3-- 3 3---- 3---- 0-- 2-- 3-- 0|---------- 0---- 0------ 0-- 3--|
G|---- 2 2---- 2---- 2-- 2-- 2-- 1|---- 1---- 1---- 1-- 1-- 1-- 1--|
D|---- 0-- 0-- 0---- 0-- 0-- 0----|-- 0------------------------ 0--|
A| 2-------------- 2--------------|------ 2---------------- 2------|
E|-------- 2-------------- 2---- 0|---------------- 0--------------|
Classical Guitar Tablature : http://classicalguitartablature.blogspot.com/
E|------------------------------ 0|---------------------- 0-- 2-- 7|
B| 2-------------------- 0-- 2-- 3|---- 3 3-- 3------ 3-- 0-- 0--10|
G| 2---- 2---- 2---- 2-- 2-- 2----| 2 2-- 2-- 2------ 2-- 2-- 2-- 9|
D|---- 2------ 2---- 2-- 2-- 2----|-- 0-- 0-- 0------ 0------------|
A| 0------------ 0-------------- 2|-------------- 2----------------|
E|-------- 0-------------- 0------|-------- 2-------------- 2------|
Classical Guitar Tablature : http://classicalguitartablature.blogspot.com/
E|------------------------------ 9|-------------- 5-- 4------------|
B|--10--10--10------ 7-- 9--10-- 9|----------12---- 6 6-- 7---- 6--|
G|-- 9-- 9-- 9------ 9-- 9-- 9--10|----10----10---- 4 4---- 4-- 4--|
D|-- 7-- 7---- 7---- 7-- 7-- 7----|---- 9---- 9------------ 6-- 6--|
A| 9------------ 9----------------|------11-------- 4--------------|
E|-------- 9------------ 9--------| 9---------------------- 4------|
Classical Guitar Tablature : http://classicalguitartablature.blogspot.com/
E| 2------ 5------ 5------ 4------| 4-- 2-- 2-- 2------ 2-- 2------|
B| 2------ 6------ 6------ 6------| 2-- 2-- 2-- 2------ 2 2---- 5--|
G| 2-- 2-- 4------ 4------ 4------| 2-- 2-- 2-- 2------ 2 3---- 3 2|
D|---- 2--------------------------|---------------------------- 2--|
A|-------- 4------ 4------ 4------|-------- 4-------------- 4------|
E| 2------------------------------| 2-------------- 2--------------|
Classical Guitar Tablature : http://classicalguitartablature.blogspot.com/
E| 0------------------------------|-------------- 5-- 4------------|
B| 3-- 3 3---- 3---- 0-- 2-- 3-- 2|---------- 6-- 6-- 6-- 7-- 6----|
G|---- 2 2---- 2---- 2-- 2-- 2-- 4|---------- 4---- 4 4-- 4-- 4----|
D|---- 0-- 0-- 0---- 0-- 0-- 0----|---- 3---- 6---------- 6---- 6--|
A| 2-------------- 2--------------| 4-------------- 4--------------|
E|-------- 2-------------- 2------|------ 4---------------- 4------|
Classical Guitar Tablature : http://classicalguitartablature.blogspot.com/
E| 2-------------- 5-- 4-- 2------|--------------------------------|
B| 2---------- 2-------------- 2--|---------------- 2 0------------|
G| 2------ 2----------------------| 2------ 2-- 2---------- 2-- 1--|
D|---- 2--------------------------|---- 2--------------------------|
A|--------------------------------|--------------------------------|
E| 2------------------------------| 2---------------------------- 2|
Classical Guitar Tablature : http://classicalguitartablature.blogspot.com/
E|--------------------------------|--------------------------------|
B|--------------------------------|--------------------------------|
G| 2------------------------------|--------------------------------|
D| 2------------------------------|--------------------------------|
A|--------------------------------|--------------------------------|
E|--------------------------------|--------------------------------|
Classical Guitar Tablature : http://classicalguitartablature.blogspot.com/

0 ความคิดเห็น:

แสดงความคิดเห็น