To celebrate the anniversary, I am giving you (finally...) : iPhone LickByNeck !!!!!!

Wedding March Theme

Mendelssohn's tune fingerstyle chord melody guitar BASIC arrangement played in the key of C.
You need to install the Flash plugin - http://www.webestools.com/

Classical Guitar Tablature : http://classicalguitartablature.blogspot.com/
Wedding March Theme - Mendelssohn - BASIC ARRANGEMENT played in the key of C
Classical Guitar Tablature : http://classicalguitartablature.blogspot.com/
E|--------------------------------|--------------------------------|
B|---------------------- 1-- 1 1--| 1---------------------- 1 1-- 1|
G|--------------------------------| 0------------------------------|
D|--------------------------------| 2------------------------------|
A|--------------------------------| 3------------------------------|
E|--------------------------------|--------------------------------|
Classical Guitar Tablature : http://classicalguitartablature.blogspot.com/
E|--------------------------------| 0------ 0 0 0-- 0---- 0-- 0 0--|
B| 1---------------------- 1 1 1--| 1------ 1 1---- 1------ 1 1----|
G| 0------------------------------| 0------ 0 0 0-- 0---- 0-- 0 0--|
D| 2------------------------------|--------------------------------|
A| 3------------------------------| 3-------------- 3--------------|
E|--------------------------------|--------------------------------|
Classical Guitar Tablature : http://classicalguitartablature.blogspot.com/
E| 3------ 3 3 3 3-------- 3------| 8-------------- 7------------ 5|
B| 1------ 1 1 1-- 1------ 1------|10------10------ 7---------- 7 0|
G| 0------ 0 0 0-- 0------ 0------| 9-- 9------ 9---------- 8---- 0|
D|--------------------------------|-------------------- 7----------|
A| 3-------------- 3--------------| 9------------------------------|
E|--------------------------------|---------------- 7--------------|
Classical Guitar Tablature : http://classicalguitartablature.blogspot.com/
E|------ 3-------- 0--------------|--------------------------------|
B|---------------- 1------ 3------| 1------ 0 1---- 3--------------|
G|-- 0------------ 2--------------| 0------ 0 0---- 0---- 0------ 0|
D|------------ 0------ 3------ 3--| 2-- 2---------- 0-- 0------ 0--|
A|--------------------------------|--------------------------------|
E| 0-------------- 1--------------| 3-------------- 3--------------|
Classical Guitar Tablature : http://classicalguitartablature.blogspot.com/
E| 0-------- 0---- 3---- 0-- 3----| 8-------------- 7------------ 5|
B|------ 1-- 1---- 1 1-- 1-- 1----|10------10------ 7---------- 7 0|
G|------ 0-------- 0-- 0 0-- 0----| 9-- 9------ 9---------- 8---- 0|
D|---- 2-------------- 2----------|-------------------- 7----------|
A| 3------------------------------| 9------------------------------|
E|--------------------------------|---------------- 7--------------|
Classical Guitar Tablature : http://classicalguitartablature.blogspot.com/
E|------ 3-------- 0--------------|---------------- 0-------- 0-- 0|
B|---------------- 1------ 3------| 1---- 0-- 1---- 3---- 3---- 3--|
G|-- 0------------ 2--------------| 0 0-- 0-- 0---- 0------ 0------|
D|------------ 0------ 3------ 3--| 2-------- 2-------- 0----------|
A|--------------------------------|--------------------------------|
E| 0-------------- 1--------------| 3-------------- 3--------------|
Classical Guitar Tablature : http://classicalguitartablature.blogspot.com/
E|--------------------------------|------------------------------ 0|
B| 3---------- 3-- 1--------------|---------- 1-- 1------------ 1 1|
G| 0------ 0------ 0------ 0------| 0---- 0------ 0------ 0--------|
D|---- 0-------------- 2------ 2--|---- 2------------ 2------------|
A| 2-------------- 3--------------| 3------------------------------|
E|--------------------------------|---------------- 0--------------|
Classical Guitar Tablature : http://classicalguitartablature.blogspot.com/
E|--------------------------------|------------------------------ 0|
B|-------- 3------ 0--------------|---------- 1-- 1------------ 1 1|
G| 2------ 2------ 0------ 0------| 0---- 0------ 0------ 0--------|
D|---- 3------ 3------ 0------ 0--|---- 2------------ 2------------|
A|--------------------------------| 3------------------------------|
E| 1-------------- 3--------------|---------------- 0--------------|
Classical Guitar Tablature : http://classicalguitartablature.blogspot.com/
E|--------------------------------|---------- 0-- 0---------- 0----|
B|-------- 3------ 0--------------|-------------- 1----------------|
G| 2------ 2------ 0------ 0------| 0---- 0-------------- 0--------|
D|---- 3------ 3------ 0------ 0--|---- 2------------ 2------------|
A|--------------------------------| 3------------------------------|
E| 1-------------- 3--------------|---------------- 0--------------|
Classical Guitar Tablature : http://classicalguitartablature.blogspot.com/
E| 3------ 1 3---- 1------ 0------|------------ 0------------------|
B| 1------ 1-- 1-- 1--------------| 3---- 2 3---- 3----------------|
G| 2-- 2------ 2-- 2-- 2------ 2--| 2-------------------- 2--------|
D|--------------------------------|---- 0-------------- 0------ 0--|
A|--------------------------------|--------------------------------|
E| 1-------------- 1--------------| 2-------------- 2--------------|
Classical Guitar Tablature : http://classicalguitartablature.blogspot.com/
E|-------- 3------ 5------ 7------| 8-------------- 7------------ 5|
B| 0------------------------------|10------10------ 7---------- 7 0|
G| 0---------- 0------ 0----------| 9-- 9------ 9---------- 8---- 0|
D|---- 0--------------------------|-------------------- 7----------|
A|--------------------------------| 9------------------------------|
E| 3------------------------------|---------------- 7--------------|
Classical Guitar Tablature : http://classicalguitartablature.blogspot.com/
E|------ 3-------- 0--------------|--------------------------------|
B|---------------- 1------ 3------| 1------ 0 1---- 3--------------|
G|-- 0------------ 2--------------| 0------ 0 0---- 0---- 0------ 0|
D|------------ 0------ 3------ 3--| 2-- 2---------- 0-- 0------ 0--|
A|--------------------------------|--------------------------------|
E| 0-------------- 1--------------| 3-------------- 3--------------|
Classical Guitar Tablature : http://classicalguitartablature.blogspot.com/
E| 0-------- 0---- 3---- 0-- 3----| 8-------------- 7------------ 5|
B|------ 1-- 1---- 1 1-- 1-- 1----|10------10------ 7---------- 7 0|
G|------ 0-------- 0-- 0 0-- 0----| 9-- 9------ 9---------- 8---- 0|
D|---- 2-------------- 2----------|-------------------- 7----------|
A| 3------------------------------| 9------------------------------|
E|--------------------------------|---------------- 7--------------|
Classical Guitar Tablature : http://classicalguitartablature.blogspot.com/
E|------ 3-------- 0--------------|---------------- 0-------- 0-- 0|
B|---------------- 1------ 3------| 1---- 0-- 1---- 3---- 3---- 3--|
G|-- 0------------ 2--------------| 0 0-- 0-- 0---- 0------ 0------|
D|------------ 0------ 3------ 3--| 2-------- 2-------- 0----------|
A|--------------------------------|--------------------------------|
E| 0-------------- 1--------------| 3-------------- 3--------------|
Classical Guitar Tablature : http://classicalguitartablature.blogspot.com/
E|--------------------------------|------------------------------ 0|
B| 3---------- 3-- 1--------------| 1---- 1-- 1 1 1------ 1 1-- 1--|
G| 0------ 0------ 0------ 0------| 0---- 0-- 0 0 0------ 0 0-- 0 0|
D|---- 0-------------- 2------ 2--| 2---- 2-- 2 2-- 2---- 2 2-- 2--|
A| 2-------------- 3--------------| 3-------------- 3--------------|
E|--------------------------------|--------------------------------|
Classical Guitar Tablature : http://classicalguitartablature.blogspot.com/
E|------ 0-- 0 0-- 0---- 0-- 0 0--| 3------ 3 3 3-- 3------ 3------|
B| 1---- 1-- 1---- 1------ 1 1 1--| 1------ 1-- 1-- 1------ 1------|
G|------ 0-- 0 0-- 0---- 0-- 0 0--| 0------ 0 0 0-- 0------ 0------|
D|--------------------------------|--------------------------------|
A| 3-------------- 3--------------| 3-------------- 3--------------|
E|--------------------------------|------------------------------ 8|
Classical Guitar Tablature : http://classicalguitartablature.blogspot.com/
E|-- 8----------------------------|--------------------------------|
B|-- 8----------------------------|--------------------------------|
G| 7------------------------------|--------------------------------|
D|--------------------------------|--------------------------------|
A|--------------------------------|--------------------------------|
E|--------------------------------|--------------------------------|
Classical Guitar Tablature : http://classicalguitartablature.blogspot.com/

0 ความคิดเห็น:

แสดงความคิดเห็น