To celebrate the anniversary, I am giving you (finally...) : iPhone LickByNeck !!!!!!

When Will I See You Again

The Three Degrees' tune fingerstyle chord melody guitar BASIC arrangement played in the key of A.

Classical Guitar Tablature : http://classicalguitartablature.blogspot.com/
When Will I See You Again -The Three Degrees - BASIC ARRANGEMENT played in the key of A
Classical Guitar Tablature : http://classicalguitartablature.blogspot.com/
E|--------------------------------|--------------------------------|
B| 0-- 0--------------------------| 2---------- 2------ 2------ 5--|
G| 1-- 1---- 2---------- 4--------| 2---------- 2------ 2------ 4--|
D| 0-- 0 0---- 0---------- 2------|------------ 2------ 2------ 2--|
A|--------------------------------| 0-------------- 0--------------|
E| 0---------- 2---------- 4------|--------------------------------|
Classical Guitar Tablature : http://classicalguitartablature.blogspot.com/
E|------------ 2------ 4-------- 5|--------------------------------|
B|---- 5------ 2------ 2----------| 2------------------------------|
G|---- 4-------------- 4----------| 2------------------ 2------ 2--|
D|---- 2---------------------- 2--|------ 2------------ 2------ 2--|
A|--------------------------------|--------------------------------|
E| 4-------------- 4--------------| 2-------------- 2--------------|
Classical Guitar Tablature : http://classicalguitartablature.blogspot.com/
Classical Guitar Tablature : http://classicalguitartablature.blogspot.com/
E|---------- 7---------- 9--------| 7---- 5------------------------|
B|---- 7---- 7-------- 7----------| 7---- 7-- 7------ 7------------|
G|---- 6---- 6------ 6------ 6----| 6---- 6-- 6-------- 6------ 6--|
D|--------------------------------|--------------------------------|
A|--------------------------------| 5------------ 5----------------|
E| 0-------------- 0--------------|--------------------------------|
Classical Guitar Tablature : http://classicalguitartablature.blogspot.com/
E|------------ 5------ 2----------| 5---------------------------- 4|
B| 5---------- 5------ 2----------| 3------------------ 3-------- 3|
G| 2------------------------------| 2------------------ 2---- 2-- 4|
D| 2------ 2------------------ 2--|-------- 4---------- 4---- 4----|
A| 4-------------- 4--------------| 2-------------- 2--------------|
E|--------------------------------|------------------------------ 0|
Classical Guitar Tablature : http://classicalguitartablature.blogspot.com/
E|------ 2------------------------|---------- 5--------------------|
B|------ 3------ 5-------- 3------|---------- 5-------- 5----------|
G|-------------- 2-------- 4------|------ 2------------ 2------ 2--|
D|-- 2-------- 2------ 4------ 2--|---- 2------------------ 2------|
A|--------------------------------| 0------------ 0----------------|
E|-------------- 2-------- 4------|--------------------------------|
Classical Guitar Tablature : http://classicalguitartablature.blogspot.com/
E|---------- 5--------------------|-------------------------- 5-- 5|
B|------------------ 5------------|---------- 2------------------ 2|
G|------ 4---------- 4------------|------ 2---------------- 2---- 2|
D|---- 2-------------------- 2----|-- 2---------------- 2----------|
A|--------------------------------|--------------------------------|
E| 4------------ 4----------------| 2-------------- 2--------------|
Classical Guitar Tablature : http://classicalguitartablature.blogspot.com/
E|---- 4-- 4-- 2 2----------------|------------ 5------------------|
B|---- 2-- 2-- 2 2-- 5---- 5-- 2--|------------ 5---- 5------------|
G|---- 2-- 2-- 2 2---- 2-- 2-- 2--|-------- 4-------- 4-------- 4--|
D|-------------------- 2-- 2-- 2--|---- 4---------------- 4--------|
A|--------------------------------| 5-------------- 5------------ 4|
E| 0-------------- 0--------------|--------------------------------|
Classical Guitar Tablature : http://classicalguitartablature.blogspot.com/
E|---------- 5--------------------|--------------------------------|
B|------------------ 5------------|------------ 3------------------|
G|------ 4------------------ 4----|------ 2------------ 2---- 2----|
D|---- 4---------------- 4--------|---- 4---------------- 4--------|
A|-------------- 4----------------| 2-------------- 2--------------|
E|--------------------------------|--------------------------------|
Classical Guitar Tablature : http://classicalguitartablature.blogspot.com/
E|--------------------------------|--------------------------------|
B|--------------------------------|------------ 2---------- 2-- 5--|
G| 1------ 1-- 2---------- 4------|------ 2------------ 4----------|
D|---- 0------ 0---------- 2------|---- 2--------------------------|
A|--------------------------------| 0------------ 0----------------|
E| 0---------- 2---------- 4------|--------------------------------|
Classical Guitar Tablature : http://classicalguitartablature.blogspot.com/
E|--------------------------------|---------------------------- 5--|
B|---------------------- 2--------|--------------------------------|
G|-- 4-------------- 4------------| 4-- 2------------------ 2------|
D|---------- 2---------------- 2--| 2---------- 2------ 2----------|
A|--------------------------------|--------------------------------|
E| 4------------ 4----------------| 2-------------- 2--------------|
Classical Guitar Tablature : http://classicalguitartablature.blogspot.com/
E| 5-- 4-- 4-- 2-- 2--------------|--------------------------------|
B| 2-- 2-- 2-- 2-- 2-- 5-- 5-- 2--|------------ 3------ 2-- 3-- 5--|
G| 2-- 2-- 2-- 2-- 2-- 2-- 2-- 2--|-------- 2---------- 2-- 2-- 2--|
D|-------------------- 2-- 2-- 2--|---- 4-------------- 4-- 4-- 2--|
A|--------------------------------| 5-------------- 5--------------|
E| 0-------------- 0--------------|--------------------------------|
Classical Guitar Tablature : http://classicalguitartablature.blogspot.com/
E|--------------------------------|--------------------------------|
B|------------ 5---- 5-- 2--------| 2-- 0---------------------- 0--|
G|-------- 2-------- 2-- 2--------| 2-- 2------ 2---------- 2------|
D|---- 2------------ 2-- 2--------| 0-- 0-------------- 0----------|
A| 4------------ 4----------------| 2-------------- 2--------------|
E|--------------------------------|--------------------------------|
Classical Guitar Tablature : http://classicalguitartablature.blogspot.com/
E|-------------- 0---- 2---- 4----|--------------------------------|
B|------------ 0 0---- 0---- 0----| 9---------------- 9------------|
G|-------- 1---- 1---- 1---- 1----| 9-------- 9-------------- 9----|
D|---- 0--------------------------| 9---- 9-------------- 9--------|
A|--------------------------------|--------------------------------|
E| 0-------------- 0--------------| 9------------ 9----------------|
Classical Guitar Tablature : http://classicalguitartablature.blogspot.com/
E|---------------------- 9--------| 7------------------------------|
B|---------- 9--12----------------|10--10----------------------10--|
G|------ 9------ 9----------------| 9-- 9------------------ 9------|
D|-- 9-------------- 9------ 9----|---- 7------ 7------ 7----------|
A|--------------------------------| 9-------------- 9------------ 9|
E| 9------------ 9----------------|--------------------------------|
Classical Guitar Tablature : http://classicalguitartablature.blogspot.com/
E|--------------------------------| 5-- 2--------------------------|
B|----------10--10--10--10-- 7----| 3-- 3------ 3-------------- 3--|
G|-------- 9---- 9-- 9-- 9-- 9----| 2-- 2------ 2---------- 2------|
D|---- 7---------- 7 7-- 7---- 7--|-------------------- 4----------|
A|-------------- 9----------------| 2-------------- 2--------------|
E|--------------------------------|--------------------------------|
Classical Guitar Tablature : http://classicalguitartablature.blogspot.com/
E|------------ 2------------------|--------------------------------|
B|---------------- 5-- 2---- 5----| 0-------------------------- 0--|
G|-------- 2------ 2-- 2---- 2----| 1---------- 1---------- 1------|
D|---- 4---------- 4-- 4---- 4----|------ 0------------ 0----------|
A| 2-------------- 2--------------|--------------------------------|
E|--------------------------------| 0-------------- 0--------------|
Classical Guitar Tablature : http://classicalguitartablature.blogspot.com/
E|--------------------------------|--------------------------------|
B|--------------------------------|------------ 2---------- 2-- 5--|
G| 1-- 1-- 1-- 2---------- 4------|------ 2------------ 4----------|
D| 0-- 0-- 0-- 0---------- 2------|---- 2--------------------------|
A|--------------------------------| 0------------ 0----------------|
E| 0---------- 2---------- 4------|--------------------------------|
Classical Guitar Tablature : http://classicalguitartablature.blogspot.com/
E|--------------------------------|---------------------------- 5--|
B|---------------------- 2--------|--------------------------------|
G|-- 4-------------- 4------------| 4-- 2------------------ 2------|
D|---------- 2---------------- 2--| 2---------- 2------ 2----------|
A|--------------------------------|--------------------------------|
E| 4------------ 4----------------| 2-------------- 2--------------|
Classical Guitar Tablature : http://classicalguitartablature.blogspot.com/
E| 5-- 4-- 4-- 2-- 2--------------|--------------------------------|
B| 2-- 2-- 2-- 2-- 2-- 5-- 5-- 2--|------------ 3------ 2-- 3-- 5--|
G| 2-- 2-- 2-- 2-- 2-- 2-- 2-- 2--|-------- 2---------- 2-- 2-- 2--|
D|-------------------- 2-- 2-- 2--|---- 4-------------- 4-- 4-- 2--|
A|--------------------------------| 5-------------- 5--------------|
E| 0-------------- 0--------------|--------------------------------|
Classical Guitar Tablature : http://classicalguitartablature.blogspot.com/
E|--------------------------------|--------------------------------|
B|------------ 5---- 5-- 2--------| 2-- 0---------------------- 0--|
G|-------- 2-------- 2-- 2--------| 2-- 2------ 2---------- 2------|
D|---- 2------------ 2-- 2--------| 0-- 0-------------- 0----------|
A| 4------------ 4----------------| 2-------------- 2--------------|
E|--------------------------------|--------------------------------|
Classical Guitar Tablature : http://classicalguitartablature.blogspot.com/
E|-------------- 0---- 2---- 4----|--------------------------------|
B|------------ 0 0---- 0---- 0----| 9---------------- 9------------|
G|-------- 1---- 1---- 1---- 1----| 9-------- 9-------------- 9----|
D|---- 0--------------------------| 9---- 9-------------- 9--------|
A|--------------------------------|--------------------------------|
E| 0-------------- 0--------------| 9------------ 9----------------|
Classical Guitar Tablature : http://classicalguitartablature.blogspot.com/
E|---------------------- 9--------| 7------------------------------|
B|---------- 9--12----------------|10--10----------------------10--|
G|------ 9------ 9----------------| 9-- 9------------------ 9------|
D|-- 9-------------- 9------ 9----|---- 7------ 7------ 7----------|
A|--------------------------------| 9-------------- 9------------ 9|
E| 9------------ 9----------------|--------------------------------|
Classical Guitar Tablature : http://classicalguitartablature.blogspot.com/
E|--------------------------------| 5-- 2--------------------------|
B|----------10--10--10--10-- 7----| 3-- 3------ 3-------------- 3--|
G|-------- 9---- 9-- 9-- 9-- 9----| 2-- 2------ 2---------- 2------|
D|---- 7---------- 7 7-- 7---- 7--|-------------------- 4----------|
A|-------------- 9----------------| 2-------------- 2--------------|
E|--------------------------------|--------------------------------|
Classical Guitar Tablature : http://classicalguitartablature.blogspot.com/
E|------------ 2------ 9----------| 7-------------------------- 7--|
B|----------------10--10------10--| 7---------- 7---------- 7------|
G|-------- 2---------- 7------ 7--| 7------ 7---------- 7----------|
D|---- 4---------- 7---------- 7--|--------------------------------|
A| 2------------------------------|--------------------------------|
E|---------------- 7--------------| 0-------------- 0--------------|
Classical Guitar Tablature : http://classicalguitartablature.blogspot.com/
E|------------ 0------------------|--------------------------------|
B|---------------- 2---- 2-- 2----| 0-------------------------- 0--|
G|---- 6-- 7------ 2---- 2-- 2----| 2-- 2------ 2---------- 2------|
D|---------------- 0---- 0-- 0----| 2------------------ 2----------|
A|--------------------------------| 0-------------- 0--------------|
E| 0-------------- 0--------------|--------------------------------|
Classical Guitar Tablature : http://classicalguitartablature.blogspot.com/
E|------------ 0------------------|------------ 9---- 7------------|
B|---- 2 3-------- 2---- 2-- 2----|-------------------------- 7----|
G|---- 2 2-------- 2---- 2-- 2----|--------------------------------|
D|---- 4---------- 0---- 0-- 0----| 9-- 7--------------------------|
A| 5------------------------------| 0-------------- 0--------------|
E|---------------- 0--------------|--------------------------------|
Classical Guitar Tablature : http://classicalguitartablature.blogspot.com/
E| 5-- 5--------------------------|--------------------------------|
B|---- 7-- 7-- 5-- 2---- 2-- 2----| 0-------------------------- 0--|
G| 7-- 7-- 7------ 2---- 2-- 2----| 2-- 2------ 2---------- 2------|
D|---------------- 0---- 0-- 0----| 2------------------ 2----------|
A| 5------------------------------| 0-------------- 0--------------|
E|---------------- 0--------------|--------------------------------|
Classical Guitar Tablature : http://classicalguitartablature.blogspot.com/
E|---- 9 7-- 5---- 8-- 7----------| 5------------------------------|
B|---- 7-- 7-- 7-- 7-- 7----10----| 5---------------- 5------------|
G|---- 6-- 6-- 6 7---- 7---- 7----| 4---------- 4-------- 4--------|
D|-------------------------- 7----|------ 4------------------ 4----|
A| 5------------------------------| 0-------------- 0--------------|
E|---------------- 0--------------|--------------------------------|
Classical Guitar Tablature : http://classicalguitartablature.blogspot.com/
E|------------ 0------------------|---------- 5--------------------|
B|---- 2 3-------- 2---- 2-- 2----|------------------ 5------------|
G|---- 2 2-------- 2---- 2-- 2----| 4-- 2---------------- 2------ 3|
D|---- 4---------- 0---- 0-- 0----| 2-------------------------- 2--|
A| 5------------------------------| 0-------------- 0--------------|
E|---------------- 0--------------|------------------------------ 4|
Classical Guitar Tablature : http://classicalguitartablature.blogspot.com/
E|---------- 5--------------------|-------------------------- 5-- 5|
B|------------------ 5------------|---------- 2------------------ 2|
G|------ 4------------------ 4----|------ 2---------------- 2---- 2|
D|-- 2----------------------------|-- 2---------------- 2----------|
A|--------------------------------|--------------------------------|
E|-------------- 4----------------| 2-------------- 2--------------|
Classical Guitar Tablature : http://classicalguitartablature.blogspot.com/
E|---- 4-- 4-- 2 2----------------|------------ 5------------------|
B|---- 2-- 2-- 2 2-- 5---- 5-- 2--|------------ 5---- 5------------|
G|---- 2-- 2-- 2 2---- 2-- 2-- 2--|-------- 4-------- 4-------- 4--|
D|-------------------- 2-- 2-- 2--|---- 4---------------- 4--------|
A|--------------------------------| 5-------------- 5------------ 4|
E| 0-------------- 0--------------|--------------------------------|
Classical Guitar Tablature : http://classicalguitartablature.blogspot.com/
E|---------- 5--------------------|--------------------------------|
B|------------------ 5------------|------------ 3------------------|
G|------ 4------------------ 4----|------ 2------------ 2---- 2----|
D|---- 4---------------- 4--------|---- 4---------------- 4--------|
A|-------------- 4----------------| 2-------------- 2--------------|
E|--------------------------------|--------------------------------|
Classical Guitar Tablature : http://classicalguitartablature.blogspot.com/
E|--------------------------------|--------------------------------|
B|--------------------------------|------------ 2-------- 2---- 5--|
G| 1------ 1-- 2---------- 4------|------ 2------------ 4----------|
D|---- 0------ 0---------- 2------|-- 2----------------------------|
A|--------------------------------| 0------------------------------|
E| 0---------- 2---------- 4------|--------------------------------|
Classical Guitar Tablature : http://classicalguitartablature.blogspot.com/
E|--------------------------------|--------------------------------|
B|--------------------------------|--------------------------------|
G|---- 4--------------------------|--------------------------------|
D|--------------------------------|--------------------------------|
A|--------------------------------|--------------------------------|
E|--------------------------------|--------------------------------|
Classical Guitar Tablature : http://classicalguitartablature.blogspot.com/

0 ความคิดเห็น:

แสดงความคิดเห็น