To celebrate the anniversary, I am giving you (finally...) : iPhone LickByNeck !!!!!!

Y.M.C.A. - The Village People

The Village People's tune fingerstyle chord melody guitar BASIC arrangement played in the key of G.

Classical Guitar Tablature : http://classicalguitartablature.blogspot.com/
Y.M.C.A. - Village People - BASIC ARRANGEMENT played in the key of C
Classical Guitar Tablature : http://classicalguitartablature.blogspot.com/
E| 7------------------------------|---- 7 7----10 7----------------|
B|10----------10------------------|----------10------10---------- 8|
G| 9-------------- 9--------------|---- 9---------------- 9------ 9|
D|--------------------------------|------------------------------10|
A|--------------------------------|--------------------------------|
E|10------10--10--10------10------|10------------10------10--------|
Classical Guitar Tablature : http://classicalguitartablature.blogspot.com/
E|--------------------------------|--------------------------------|
B|---------- 8 8-- 8-------- 8 8--| 8------ 8---- 8------ 8--------|
G|---------------- 9--------------| 9------ 9---- 9-------- 9------|
D|----------------10--------------|10------10----10--------10------|
A|--------------------------------|--------------------------------|
E|10------10------10------10------|10--10--10--10--10--10--10--10--|
Classical Guitar Tablature : http://classicalguitartablature.blogspot.com/
E|--------------------------------|------------------------------ 0|
B| 3-- 0---------------- 0--------|------ 0---- 3---- 0-- 3--------|
G| 0-- 0------ 0---- 0------ 2-- 0|-- 2-------------------------- 0|
D| 0-------- 0-------- 0-------- 0|-- 0----------------------------|
A|--------------------------------|--------------------------------|
E| 3---- 3------ 3------ 3------ 3|-------- 3------ 3------ 3------|
Classical Guitar Tablature : http://classicalguitartablature.blogspot.com/
E|--------------------------------|--------------------------------|
B|---- 0------------------ 0------|-------- 0-- 3------ 0-- 3------|
G|---- 0------ 0------ 0------ 2--| 0-- 2-- 0-- 0------ 0-- 0-- 0--|
D|---- 0------ 0------ 0----------| 0-- 0-- 0-- 0------ 0-- 0------|
A|--------------------------------|--------------------------------|
E| 0------ 0------ 0---- 0--------| 0------ 0------ 0------ 0------|
Classical Guitar Tablature : http://classicalguitartablature.blogspot.com/
E| 0------------------------------|------------ 0------ 3-- 0------|
B| 1-- 1---------------- 1---- 0--|---- 0-- 1-- 1------ 1-- 1------|
G| 0-- 0------ 0------ 0-- 0-- 0--| 2 1---- 0-- 0------ 0-- 0------|
D|---- 2------ 2------ 2-- 2-- 2--| 2------ 2----------------------|
A| 3------ 3------ 3------ 3------| 3------ 3------ 3------ 3------|
E|--------------------------------|--------------------------------|
Classical Guitar Tablature : http://classicalguitartablature.blogspot.com/
E| 2---------- 0------------------|--------------------------------|
B| 3---------- 1---------- 3------|---- 1-------- 0----------------|
G| 2---------- 0---------- 2------|---- 0-------- 0------ 2--------|
D|-------------- 2-------- 4------|---- 2-------- 0------ 2--------|
A|------------------------ 5------|---- 3-------- 2-------- 0------|
E| 2---------- 0------------------|--------------------------------|
Classical Guitar Tablature : http://classicalguitartablature.blogspot.com/
E|--------------------------------|------------------------------ 0|
B| 3-- 0---------------- 0--------|------ 0---- 3---- 0-- 3--------|
G| 0-- 0------ 0---- 0------ 2-- 0|-- 2-------------------------- 0|
D| 0-------- 0-------- 0-------- 0|-- 0----------------------------|
A|--------------------------------|--------------------------------|
E| 3---- 3------ 3------ 3------ 3|-------- 3------ 3------ 3------|
Classical Guitar Tablature : http://classicalguitartablature.blogspot.com/
E|--------------------------------|--------------------------------|
B|---- 0------------------ 0------|-------- 0-- 3------ 0-- 3------|
G|---- 0------ 0------ 0------ 2--| 0-- 2-- 0-- 0------ 0-- 0-- 0--|
D|---- 0------ 0------ 0----------| 0-- 0-- 0-- 0------ 0-- 0------|
A|--------------------------------|--------------------------------|
E| 0------ 0------ 0---- 0--------| 0------ 0------ 0------ 0------|
Classical Guitar Tablature : http://classicalguitartablature.blogspot.com/
E| 0------------------------------|------------ 0------ 3-- 0------|
B| 1-- 1---------------- 1---- 0--|---- 0-- 1-- 1------ 1-- 1------|
G| 0-- 0------ 0------ 0-- 0-- 0--| 2 1---- 0-- 0------ 0-- 0------|
D|---- 2------ 2------ 2-- 2-- 2--| 2------ 2----------------------|
A| 3------ 3------ 3------ 3------| 3------ 3------ 3------ 3------|
E|--------------------------------|--------------------------------|
Classical Guitar Tablature : http://classicalguitartablature.blogspot.com/
E| 2---------- 0------------------|--------------------------------|
B| 3---------- 1---------- 3------|---- 1-------- 0----------------|
G| 2---------- 0---------- 2------|---- 0-------- 0------ 2--------|
D|-------------- 2-------- 4------|---- 2-------- 0------ 2--------|
A|------------------------ 5------|---- 3-------- 2-------- 0------|
E| 2---------- 0------------------|--------------------------------|
Classical Guitar Tablature : http://classicalguitartablature.blogspot.com/
E|--------------------------------|--------------------------------|
B| 3------ 3------ 3------ 3------| 3------ 3------ 3------ 3------|
G| 5---- 5------ 5-------- 5------| 5-- 4---- 4------ 4------------|
D| 5-------------- 5------ 5------| 5------------------------------|
A| 5-- 5-- 5 5---- 5-- 5-- 5 5----| 5------------------------------|
E|--------------------------------|--------------------------------|
Classical Guitar Tablature : http://classicalguitartablature.blogspot.com/
E| 0-------------------- 0--------|--------------------------------|
B| 3-------------- 3---------- 3--|---- 3-- 3-- 0------------------|
G| 0-- 0------ 0-------------- 0--|---------------- 2-- 0-- 2------|
D|---- 0------ 0------ 0------ 0--|-------------------- 0-- 0-- 0--|
A|--------------------------------|--------------------------------|
E| 3------ 3------ 3------ 3------| 3------ 3------ 3------ 3------|
Classical Guitar Tablature : http://classicalguitartablature.blogspot.com/
E|--------------------------------|-------------------- 3-- 3-- 0--|
B|--------------------------------|------------------------ 0-- 0--|
G| 2-------------- 0------ 2-- 0--|------------------------ 0-- 0 5|
D|---- 2------ 2------ 2-- 2-- 2--|---- 2------ 2------------------|
A|--------------------------------|--------------------------------|
E| 0------ 0------ 0------ 0------| 0------ 0------ 0------ 0------|
Classical Guitar Tablature : http://classicalguitartablature.blogspot.com/
E|--------------------------------|--------------------------------|
B| 8-- 8------ 5---- 8-- 8-- 5-- 8|---- 8------ 5------ 8-- 8-- 5--|
G|---- 5------ 5---- 5-- 5---- 5 5|---- 5------ 5------ 5-- 5-- 5--|
D| 7-- 7------ 6---- 6-- 6---- 6 5|---- 5------ 5------ 5-- 5-- 5--|
A| 0------ 0---- 0------ 0--------| 0------ 0------ 0------ 0------|
E|--------------------------------|--------------------------------|
Classical Guitar Tablature : http://classicalguitartablature.blogspot.com/
E|---------------------------- 0--|--------------------------------|
B| 8-- 5------ 8------ 5------ 0--|---------- 0------ 0------------|
G| 5-- 5 7---- 5------ 5-- 7-- 7--|-- 7-- 7------ 7------ 7--------|
D| 5---- 5---- 5------ 5-- 5------|------ 7------ 7-------- 7-- 7--|
A| 5------ 5------ 5------ 5---- 5|------ 5------ 5-------- 5------|
E|--------------------------------|--------------------------------|
Classical Guitar Tablature : http://classicalguitartablature.blogspot.com/
E| 0-------------------- 0--------|--------------------------------|
B| 3-------------- 3---------- 3--|---- 3-- 3-- 0------------------|
G| 0-- 0------ 0-------------- 0--|---------------- 2-- 0-- 2------|
D|---- 0------ 0------ 0------ 0--|-------------------- 0-- 0-- 0--|
A|--------------------------------|--------------------------------|
E| 3------ 3------ 3------ 3------| 3------ 3------ 3------ 3------|
Classical Guitar Tablature : http://classicalguitartablature.blogspot.com/
E|--------------------------------|-------------------- 3-- 3-- 0--|
B|--------------------------------|------------------------ 0-- 0--|
G| 2-------------- 0------ 2-- 0--|------------------------ 0-- 0 5|
D|---- 2------ 2------ 2-- 2-- 2--|---- 2------ 2------------------|
A|--------------------------------|--------------------------------|
E| 0------ 0------ 0------ 0------| 0------ 0------ 0------ 0------|
Classical Guitar Tablature : http://classicalguitartablature.blogspot.com/
E|--------------------------------|--------------------------------|
B| 8-- 8------ 5---- 8-- 8-- 5-- 8|---- 8------ 5------ 8-- 8-- 5--|
G|---- 5------ 5---- 5-- 5---- 5 5|---- 5------ 5------ 5-- 5-- 5--|
D| 7-- 7------ 6---- 6-- 6---- 6 5|---- 5------ 5------ 5-- 5-- 5--|
A| 0------ 0---- 0------ 0--------| 0------ 0------ 0------ 0------|
E|--------------------------------|--------------------------------|
Classical Guitar Tablature : http://classicalguitartablature.blogspot.com/
E|---------------------------- 0--|--------------------------------|
B| 8-- 5------ 8------ 5------ 0--|---------- 0------ 0------------|
G| 5-- 5 7---- 5------ 5-- 7-- 7--|-- 7-- 7------ 7------ 7--------|
D| 5---- 5---- 5------ 5-- 5------|------ 7------ 7-------- 7-- 7--|
A| 5------ 5------ 5------ 5---- 5|------ 5------ 5-------- 5------|
E|--------------------------------|--------------------------------|
Classical Guitar Tablature : http://classicalguitartablature.blogspot.com/
E| 0-------------------- 0--------|--------------------------------|
B| 1------------ 3-------- 1-- 3--|--------------------------------|
G| 0------------ 0------ 0---- 0--|--------------------------------|
D|-------------- 0------------ 0--|--------------------------------|
A| 3------------ 2------ 0--------|--------------------------------|
E|---------------------------- 3--|--------------------------------|
Classical Guitar Tablature : http://classicalguitartablature.blogspot.com/

0 ความคิดเห็น:

แสดงความคิดเห็น