To celebrate the anniversary, I am giving you (finally...) : iPhone LickByNeck !!!!!!

You'll Never Walk Alone

Gerry And The Pacemakers' tune fingerstyle chord melody guitar BASIC arrangement played in the key of C.

Classical Guitar Tablature : http://classicalguitartablature.blogspot.com/
You'll Never Walk Alone - Gerry The Pacemakers - BASIC ARRANGEMENT played in the key of C
Classical Guitar Tablature : http://classicalguitartablature.blogspot.com/
E|---------------------- 0--------|-------------------------- 0----|
B|-------- 1------------------ 3--| 1------ 1-------------- 1-- 3--|
G|---- 0---- 0-------- 0----------|---- 0---- 0-------- 0----------|
D|-- 2---------- 2-- 2------------|-- 2-------- 2---- 2------------|
A| 3-------------- 3--------------| 3-------------- 3--------------|
E|--------------------------------|--------------------------------|
Classical Guitar Tablature : http://classicalguitartablature.blogspot.com/
E|---------------------------- 0--| 3-------------------------- 0--|
B| 1------ 1------------ 1-- 3----| 0------ 0------------ 0--------|
G|---- 0---- 0-------- 0----------|---- 0---- 0-------- 0----------|
D|-- 2-------- 2---- 2------------|-- 0-------- 0---- 0------ 0----|
A| 3-------------- 3--------------|--------------------------------|
E|--------------------------------| 3-------------- 3--------------|
Classical Guitar Tablature : http://classicalguitartablature.blogspot.com/
E|---------------------------- 1--| 1------------------------ 3 1--|
B| 3------ 3------------ 3--------| 1---- 1-------------- 1--------|
G|---- 0------ 0------ 0----------| 2-- 2------ 2------ 2----------|
D|-- 0------ 0------ 0------ 0----|-- 3------ 3------ 3------------|
A|--------------------------------|--------------------------------|
E| 3-------------- 3--------------| 1-------------- 1--------------|
Classical Guitar Tablature : http://classicalguitartablature.blogspot.com/
E| 0------------------------ 3 0--|--------------------------------|
B| 1------ 1-------------- 1------| 3------ 3-------------- 3------|
G|---- 0---- 0-------- 0----------| 0-- 0---- 0-------- 0---- 0----|
D|-- 2-------- 2---- 2---------- 0|-- 0-------- 0---- 0-------- 0--|
A| 3-------------- 3--------------|--------------------------------|
E|--------------------------------| 3-------------- 3--------------|
Classical Guitar Tablature : http://classicalguitartablature.blogspot.com/
E|--------------------------------|--------------------------------|
B|------ 3-------------- 3-- 3 5--| 6---- 6-------------------- 5--|
G|---- 3---- 3-------- 3----------| 7-- 7---- 7-------- 7---- 7----|
D|-- 5-------- 5---- 5------------|-- 7-------- 7---- 7---- 7------|
A|--------------------------------| 5-------------- 5--------------|
E| 3-------------- 3--------------|--------------------------------|
Classical Guitar Tablature : http://classicalguitartablature.blogspot.com/
E|-------------------------- 5 3 5|-------------------------- 5----|
B| 3------ 3------------ 3------ 6|------ 6-------------- 6---- 8 6|
G| 3-- 3---- 3-------- 3-------- 5|---- 5---- 5-------- 5-------- 7|
D|-- 3-------- 3---- 3------------|-- 7-------- 7---- 7------------|
A| 1-------------- 1------------ 8|-------------- 8----------------|
E|--------------------------------|--------------------------------|
Classical Guitar Tablature : http://classicalguitartablature.blogspot.com/
E|---------------------------- 5 6|-------------- 5---------- 8 5--|
B|------ 6-------------- 6-- 8-- 6|------ 6-------- 5------ 5------|
G|---- 7---- 7-------- 7-------- 7|---- 7---- 7---- 5-- 5----------|
D|-- 7-------- 7---- 7------------|-- 8-------- 8---- 7------------|
A| 5------------ 5----------------|--------------------------------|
E|------------------------------ 6|---------------- 5--------------|
Classical Guitar Tablature : http://classicalguitartablature.blogspot.com/
E| 3-------------- 1--------------| 0------------------------------|
B|-------- 3------ 1------ 1------| 3------ 3-------------- 3------|
G| 3-- 3---- 3---- 2-- 2---- 2----| 1-- 1---- 1-------- 1---- 1----|
D|-- 5-------- 5---- 3-------- 3--|-- 2-------- 2---- 2-------- 2--|
A|--------------------------------|--------------------------------|
E| 3-------------- 1--------------| 0-------------- 0--------------|
Classical Guitar Tablature : http://classicalguitartablature.blogspot.com/
E|---------------------------- 3 5|---------------------------- 5--|
B|-------- 1------------ 1--------|------ 8---------------- 8 8----|
G|---- 0---- 0-------- 0---- 0----|---- 5---- 5-------- 5----------|
D|-- 2-------- 2---- 2------------|-- 7-------- 7---- 7------------|
A| 3-------------- 3------------ 8|---------------- 8--------------|
E|--------------------------------|--------------------------------|
Classical Guitar Tablature : http://classicalguitartablature.blogspot.com/
E| 7------------------------------|10 8----------------------------|
B| 9------ 9-------------- 9------| 8 8------ 8------------ 8------|
G| 7-- 7---- 7-------- 7---- 7----| 9 9-- 9---- 9------ 9---- 9----|
D|-- 9-------- 9---- 9-------- 9--|----10------------10--------10--|
A|--------------------------------|--------------------------------|
E| 7-------------- 7--------------| 8-------------- 8--------------|
Classical Guitar Tablature : http://classicalguitartablature.blogspot.com/
E| 7 810------10--------10-- 810--|12-------------------- 8--------|
B| 9 9 9---- 9-------- 9----------|-------- 8----------------------|
G|101010--10--------10------------| 9-- 9---- 9-------- 9------ 9--|
D|--------------------------------|--10--------10----10------10----|
A|--------------------------------|--------------------------------|
E|10--------------10--------------| 8-------------- 8--------------|
Classical Guitar Tablature : http://classicalguitartablature.blogspot.com/
E| 3-------------------- 0--------| 5------------------------------|
B| 0------ 0----------------------| 6------ 6-------------- 6------|
G| 0---- 0-- 0-------- 0---- 0----| 5-- 5---- 5-------- 5---- 5----|
D|-- 0-------- 0---- 0-------- 0--|-- 7-------- 7---- 7-------- 7--|
A|--------------------------------| 8-------------- 8--------------|
E| 0-------------- 0--------------|--------------------------------|
Classical Guitar Tablature : http://classicalguitartablature.blogspot.com/
E| 7------------------------------|10-- 8--------------------1210--|
B| 8------ 8-------------- 8------| 8-- 8------ 8-------- 8--------|
G| 7-- 7---- 7-------- 7---- 7----| 9-- 9---- 9-------- 9----------|
D|-- 9-------- 9---- 9-------- 9--|------10----------10------------|
A|10--------------10--------------|--------------------------------|
E|--------------------------------| 8-------------- 8--------------|
Classical Guitar Tablature : http://classicalguitartablature.blogspot.com/
E|12------12 810-- 8------ 8-- 8--| 8------ 8-------------- 8 7 8--|
B| 9-- 9-------------- 9---- 9----|10--10----10--------10----------|
G| 9 9-------------- 9------------| 9 9-------- 9---- 9------------|
D|--------------------------------|--------------------------------|
A|--------------------------------| 8-------------- 8--------------|
E| 8-------------- 8--------------|--------------------------------|
Classical Guitar Tablature : http://classicalguitartablature.blogspot.com/
E|10--------------------------10--|12--------------12--------------|
B|10------10--------------1013----| 8------ 8------12------12--15--|
G|11--11----11--------11----------| 9-- 9---- 9----13--13----13----|
D|--10--------10----10------------|--10--------10----12------------|
A|--------------------------------|--------------------------------|
E|10--------------10--------------| 8-------------- 0--------------|
Classical Guitar Tablature : http://classicalguitartablature.blogspot.com/
E|12-------------------- 912--1012|--------------------------------|
B|----10----10--------11-------- 0|-------- 0-------------- 0------|
G| 9 9---- 9-- 9---- 9---------- 0|---- 0---- 0-------- 0---- 0--10|
D|--------------------------------|-- 0-------- 0---- 0-------- 0--|
A| 8-------------- 9--------------|--------------------------------|
E|--------------------------------| 0-------------- 0--------------|
Classical Guitar Tablature : http://classicalguitartablature.blogspot.com/
E|------------------------10------|15--------------12------12--10--|
B|12------12------12------12------|15------15------ 9-- 9------ 9--|
G|--------10------10------10------|14----14--14---- 9 9------ 9----|
D|12------12------12--------------|----14------14------------------|
A|101010--101010--101010--1010--10|15------------------------------|
E|--------------------------------|---------------- 8--------------|
Classical Guitar Tablature : http://classicalguitartablature.blogspot.com/
E| 8------------------------------| 3------------------------------|
B|--------10------------10----10 1|-------- 1-------------- 1------|
G| 9-- 9---- 9--------10----12----| 0-- 0---- 0-------- 0---- 0----|
D|--10--------10----10------------|-- 2-------- 2---- 2-------- 2--|
A| 8------------10----------------| 3-------------- 3--------------|
E|--------------------------------|--------------------------------|
Classical Guitar Tablature : http://classicalguitartablature.blogspot.com/
E|--------------------------------|10-- 8--------------------1210--|
B| 0------ 0------ 0------ 0------| 8-- 8------ 8-------- 8--------|
G| 0------ 0------ 0------ 0------| 9-- 9---- 9-------- 9----------|
D| 0------ 0------ 0------ 0------|------10----------10------------|
A|--------------------------------|--------------------------------|
E| 3 3 3-- 3 3 3-- 3 3-- 3 3 3-- 3| 8-------------- 8--------------|
Classical Guitar Tablature : http://classicalguitartablature.blogspot.com/
E|12------12 810-- 8------ 8-- 8--| 8------ 8-------------- 8 7 8--|
B| 9-- 9-------------- 9---- 9----|10--10----10--------10----------|
G| 9 9-------------- 9------------| 9 9-------- 9---- 9------------|
D|--------------------------------|--------------------------------|
A|--------------------------------| 8-------------- 8--------------|
E| 8-------------- 8--------------|--------------------------------|
Classical Guitar Tablature : http://classicalguitartablature.blogspot.com/
E|10--------------------------10--|12--------------12--------------|
B|10------10--------------1013----| 8------ 8------12------12--15--|
G|11--11----11--------11----------| 9-- 9---- 9----13--13----13----|
D|--10--------10----10------------|--10--------10----12------------|
A|--------------------------------|--------------------------------|
E|10--------------10--------------| 8-------------- 0--------------|
Classical Guitar Tablature : http://classicalguitartablature.blogspot.com/
E|12-------------------- 912--1012|--------------------------------|
B|----10----10--------11-------- 0|-------- 0-------------- 0------|
G| 9 9---- 9-- 9---- 9---------- 0|---- 0---- 0-------- 0---- 0--10|
D|--------------------------------|-- 0-------- 0---- 0-------- 0--|
A| 8-------------- 9--------------|--------------------------------|
E|--------------------------------| 0-------------- 0--------------|
Classical Guitar Tablature : http://classicalguitartablature.blogspot.com/
E|------------------------10------|15------------10--1210----------|
B|12------12------12------12------|15--------------------------10--|
G|--------10------10------10------|14------------------------------|
D|12------12------12--------------|--------------------------------|
A|101010--101010--101010--1010--10|15------------------------------|
E|--------------------------------|--------------------------------|
Classical Guitar Tablature : http://classicalguitartablature.blogspot.com/
E| 8------------------------------| 8------------------------------|
B|10-------------- 810------------|-- 1------10------------------10|
G| 9-------------- 9--------------|-- 9---- 9---- 9---------- 9----|
D|--------------------------------|------10--------10----10--------|
A| 8--------------10--------------|-- 8---------------- 8----------|
E|--------------------------------|--------------------------------|
Classical Guitar Tablature : http://classicalguitartablature.blogspot.com/
E|--------------------------------|--------------------------------|
B|--------------------------------|------ 1------------------------|
G|-- 9----------------------------|---- 0--------------------------|
D|------10------------------------|---- 2--------------------------|
A|--------------------------------|-- 3----------------------------|
E|--------------------------------|--------------------------------|
Classical Guitar Tablature : http://classicalguitartablature.blogspot.com/

0 ความคิดเห็น:

แสดงความคิดเห็น