To celebrate the anniversary, I am giving you (finally...) : iPhone LickByNeck !!!!!!

Amanda - Boston

Boston's tune fingerstyle chord melody guitar BASIC arrangement played in the key of G.

Classical Guitar Tablature : http://classicalguitartablature.blogspot.com/
Amanda - Boston - BASIC ARRANGEMENT played in the key of G
Classical Guitar Tablature : http://classicalguitartablature.blogspot.com/
E|--------------------------------|--------------------------------|
B| 0------ 0---- 0---- 1---- 1----| 0------ 0---- 0 1-- 1---- 1-- 0|
G| 0------ 0---- 0-- 0---- 0------| 0------ 0---- 0-- 0---- 0------|
D| 0-- 0------ 0 0 0---- 0---- 0--|---- 0------ 0---- 0-- 0---- 0--|
A|---------------------- 3--------|--------------------------------|
E| 3------------ 3----------------| 3------------ 3-------------- 3|
Classical Guitar Tablature : http://classicalguitartablature.blogspot.com/
E|---------------- 0 0 0 0--------|-------------- 0-- 0 0 0--------|
B|-------- 0-------- 1 1 1-- 3-- 3|-- 0------ 0-- 0-- 0 0 0-- 3-- 3|
G|------------ 0---- 0 0 0-- 0----|-- 0---- 0-- 0 0-- 0 0 0-- 0-- 2|
D|---- 0--------------------------|------ 0------------------ 0-- 0|
A|--------------------------------|------------------------------ 2|
E|---------------- 3------ 3------| 3-------------- 0--------------|
Classical Guitar Tablature : http://classicalguitartablature.blogspot.com/
E|-------------- 2----------------| 0-- 0 0-- 0 2-- 3--------------|
B|-- 0------ 0-- 0------------ 0 3| 1-- 1 1-------- 0--------------|
G|---- 2---- 2------------ 2------| 0-- 0 0-- 0---- 0-- 0 0---- 0--|
D|------ 0---------- 0------------|--------------------------------|
A|--------------------------------| 3------ 3------ 2------ 2------|
E|--------------------------------|--------------------------------|
Classical Guitar Tablature : http://classicalguitartablature.blogspot.com/
E|--------------------------------|-------------- 0-- 2-- 2--------|
B| 1-- 1 1-------------- 0-- 1 0--|------ 3------ 3-- 3-- 3------ 3|
G| 2-- 2 2---- 2------ 2-------- 2|-------- 2---- 2-- 2-- 2---- 2--|
D| 2-- 2 2-- 2-- 2-- 2---------- 4|---- 4---- 4-------------- 4----|
A| 0------ 0-------------------- 5|-------------- 5-------- 5------|
E|---------------- 3--------------|--------------------------------|
Classical Guitar Tablature : http://classicalguitartablature.blogspot.com/
E|---------------- 0 2-- 2--------|---------------- 0 0 0 0--------|
B| 3------ 3------ 3 3-- 3---- 3 0|-------- 0-------- 1 1 1-- 3-- 3|
G| 2------ 2------ 2 2-- 2---- 2--|------------ 0---- 0 0 0-- 0----|
D| 4-- 4------ 4------------ 4----|---- 0--------------------------|
A| 5-------------- 5------ 5------|--------------------------------|
E|------------------------------ 3|---------------- 3------ 3------|
Classical Guitar Tablature : http://classicalguitartablature.blogspot.com/
E|-------------- 0-- 0 0 0--------|-------------- 2----------------|
B|-- 0------ 0-- 0-- 0 0 0-- 3-- 3|-- 0------ 0-- 0------------ 0 3|
G|-- 0---- 0-- 0 0-- 0 0 0-- 0-- 2|---- 2---- 2------------ 2------|
D|------ 0------------------ 0-- 0|------ 0---------- 0------------|
A|------------------------------ 2|--------------------------------|
E| 3-------------- 0--------------|--------------------------------|
Classical Guitar Tablature : http://classicalguitartablature.blogspot.com/
E| 0-- 0 0-- 0 2-- 3--------------|--------------------------------|
B| 1-- 1 1-------- 0--------------| 1-- 1 1-------------- 0-- 1 0--|
G| 0-- 0 0-- 0---- 0-- 0 0---- 0--| 2-- 2 2---- 2------ 2-------- 2|
D|--------------------------------| 2-- 2 2-- 2-- 2-- 2------------|
A| 3------ 3------ 2------ 2------| 0------ 0-------------------- 5|
E|--------------------------------|---------------- 3--------------|
Classical Guitar Tablature : http://classicalguitartablature.blogspot.com/
E|---------------------------- 7--| 3------------------------------|
B|------------ 3-- 8------------10| 0------ 0------------------ 0 3|
G|------ 2------------ 7---- 7----| 0------ 0---- 0-------- 0------|
D|---- 4------------------ 7------|---- 0------ 0------ 4----------|
A|--------------------------------| 2-------------- 5--------------|
E|---------------- 8--------------|--------------------------------|
Classical Guitar Tablature : http://classicalguitartablature.blogspot.com/
E| 0-- 0 0-- 0 0 0-- 0 0---- 0 0 0|--------------------------------|
B| 0-- 0 0-- 0 0 1-- 1 1---- 1 1--| 3 3-- 3------ 3------ 3-- 0-- 3|
G| 0-- 0 0-- 0 0 0-- 0 0-- 0 0 0--| 0---- 0---- 0---- 0------------|
D|---------------- 2--------------|---------- 4------ 4---- 4------|
A|-------------- 0------ 0------ 5|------ 5-------- 5---- 5--------|
E| 0------ 0----------------------|--------------------------------|
Classical Guitar Tablature : http://classicalguitartablature.blogspot.com/
E| 0-- 0 0-- 0 0 0-- 0 0---- 0 0 0|--------------------------------|
B| 0-- 0 0-- 0 0 1-- 1 1---- 1 1--| 3 3-- 3------ 3------ 3-- 0-- 3|
G| 0-- 0 0-- 0 0 0-- 0 0-- 0 0 0--| 0---- 0---- 0---- 0------------|
D|---------------- 2--------------|---------- 4------ 4---- 4------|
A|-------------- 0------ 0------ 5|------ 5-------- 5---- 5--------|
E| 0------ 0----------------------|--------------------------------|
Classical Guitar Tablature : http://classicalguitartablature.blogspot.com/
E| 0-- 0 0-- 0 0 0-- 0 0---- 0 0 0|--------------------------------|
B| 0-- 0 0-- 0 0 1-- 1 1---- 1 1 3|-- 3-- 3---- 3------------ 3----|
G| 0-- 0 0-- 0 0 0-- 0 0-- 0 0 0--| 0-------- 0------ 0------------|
D|---------------- 2--------------|-------- 4------ 4-- 4-- 4------|
A|-------------- 0------ 0--------| 5---- 5------ 5------ 5--------|
E| 0------ 0----------------------|--------------------------------|
Classical Guitar Tablature : http://classicalguitartablature.blogspot.com/
E| 0------------------------------| 2------------------------------|
B| 0------ 0---- 0------ 0--------| 3------ 3-- 3------ 3----------|
G| 1------ 1---- 1---- 1---- 1----| 2------ 2-- 2---- 2---- 2------|
D|-------- 2---- 2-- 2-------- 2--|---- 4------ 4-- 4-------- 4----|
A|--------------------------------| 2------------ 2----------------|
E| 0-------------- 0--------------|--------------------------------|
Classical Guitar Tablature : http://classicalguitartablature.blogspot.com/
E| 0------------------------------| 2------------------------------|
B| 0------ 0---- 0------ 0--------| 3------ 3-- 3------ 3----------|
G| 1------ 1---- 1---- 1---- 1----| 2------ 2-- 2---- 2---- 2------|
D|-------- 2---- 2-- 2-------- 2--|---- 4------ 4-- 4-------- 4----|
A|--------------------------------| 2------------ 2----------------|
E| 0-------------- 0--------------|------------------------------ 0|
Classical Guitar Tablature : http://classicalguitartablature.blogspot.com/
E|-------- 4-- 5 4------ 4--------|---- 7---------------------- 4--|
B|------ 5 5 5-- 5-- 5------ 5----|10-- 710-- 9--10----10------ 7--|
G|---- 4 4---- 4 4-- 4-------- 4--| 7-- 7 7-- 8-- 7-- 7---- 9-- 4--|
D|--------------------------------| 7---- 7-- 7-- 7 7--------------|
A|--------------------------------|--------------------------------|
E|---------------- 0--------------| 7------ 7------ 7--------------|
Classical Guitar Tablature : http://classicalguitartablature.blogspot.com/
E|------ 7-- 5 7-- 5 7-- 5 4------|-- 7----------------------------|
B|------ 5-- 5 5------ 5 5 5----10|--1010---- 9--10-- 9 7----------|
G|-- 4-- 4-- 4 4-- 4 4-- 4-- 4-- 7|-- 7 7---- 7-- 7-- 7 7------ 7--|
D|------------------------------ 7|---- 7---- 7-- 7-- 7 7----------|
A|--------------------------------|--------------------------------|
E| 0------------ 0-------- 0---- 7|------ 7-------- 7------ 7------|
Classical Guitar Tablature : http://classicalguitartablature.blogspot.com/
E| 3-------- 3 0 5-- 5------------| 7 8-- 7------------------------|
B| 1---- 1-- 1 1---- 7-- 7--------| 8 8-- 7--1010---- 8-- 8-- 7-- 7|
G| 0-- 0---- 0 0---- 7-- 7---- 7--| 7-- 7---- 7 7---- 7-- 7-- 7----|
D|--------------------------------|---------- 7 9---- 9-- 9-- 9-- 9|
A| 3------ 3------ 5------ 5------|10---- 9-------- 7--------------|
E|--------------------------------|------------------------10------|
Classical Guitar Tablature : http://classicalguitartablature.blogspot.com/
E|---------------- 5-- 5-- 3-- 3--| 2-------------------------- 7--|
B|------------ 5 8 5-- 5-- 1-- 1--| 3---------- 3-- 8------------10|
G|-- 9------ 7------ 5---- 2 2----| 2---- 2------------ 7---- 7----|
D|------ 9-- 5--------------------|---- 4---- 4------------ 7------|
A|---------------- 0--------------| 5------------------------------|
E| 8------ 7-------------- 3------|---------------- 8--------------|
Classical Guitar Tablature : http://classicalguitartablature.blogspot.com/
E| 3------------------------------| 0-- 0 0-- 0 0 0-- 0 0---- 0 0 0|
B| 0------ 0------------------ 0 3| 0-- 0 0-- 0 0 1-- 1 1---- 1 1--|
G| 0------ 0---- 0-------- 0------| 0-- 0 0-- 0 0 0-- 0 0-- 0 0 0--|
D|---- 0------ 0------ 4----------|---------------- 2--------------|
A| 2-------------- 5--------------|-------------- 0------ 0------ 5|
E|--------------------------------| 0------ 0----------------------|
Classical Guitar Tablature : http://classicalguitartablature.blogspot.com/
E|--------------------------------| 0-- 0 0-- 0 0 0-- 0 0---- 0 0 0|
B| 3 3-- 3------ 3------ 3-- 0-- 3| 0-- 0 0-- 0 0 1-- 1 1---- 1 1--|
G| 0---- 0---- 0---- 0------------| 0-- 0 0-- 0 0 0-- 0 0-- 0 0 0--|
D|---------- 4------ 4---- 4------|---------------- 2--------------|
A|------ 5-------- 5---- 5--------|-------------- 0------ 0------ 5|
E|--------------------------------| 0------ 0----------------------|
Classical Guitar Tablature : http://classicalguitartablature.blogspot.com/
E|--------------------------------| 0-- 0 0-- 0 0 0-- 0 0---- 0 0 0|
B| 3 3-- 3------ 3------ 3-- 0-- 3| 0-- 0 0-- 0 0 1-- 1 1---- 1 1 3|
G| 0---- 0---- 0---- 0------------| 0-- 0 0-- 0 0 0-- 0 0-- 0 0 0--|
D|---------- 4------ 4---- 4------|---------------- 2--------------|
A|------ 5-------- 5---- 5--------|-------------- 0------ 0--------|
E|--------------------------------| 0------ 0----------------------|
Classical Guitar Tablature : http://classicalguitartablature.blogspot.com/
E|--------------------------------|--------------------------------|
B|-- 3-- 3---- 3------------ 3-- 7|------------ 8------------------|
G| 0-------- 0------ 0---------- 7|-------------- 9----------------|
D|-------- 4------ 4-- 4-- 4---- 7|--------------------------------|
A| 5---- 5------ 5------ 5--------|--------------------------------|
E|--------------------------------| 8------------------------------|
Classical Guitar Tablature : http://classicalguitartablature.blogspot.com/

0 ความคิดเห็น:

แสดงความคิดเห็น