To celebrate the anniversary, I am giving you (finally...) : iPhone LickByNeck !!!!!!

Colors Of The Wind

Vanessa Williams' tune fingerstyle chord melody guitar BASIC arrangement played in the key of C.

Classical Guitar Tablature : http://classicalguitartablature.blogspot.com/
Colors Of The Wind - Disney Pocahontas - Vanessa Williams - BASIC ARRANGEMENT played in the key of C
Classical Guitar Tablature : http://classicalguitartablature.blogspot.com/
E| 0-- 3 3-- 0---- 0------ 0------|---- 0-- 0----------------------|
B| 1-- 1 1-- 1---- 1---------- 0--| 1-- 1-- 1 1---- 1--------------|
G| 0-- 0 0-- 0---- 0---------- 2--| 2-- 2-- 2 2---- 2------ 2------|
D|-------------------- 2----------| 2-------- 2---- 2-- 2------ 2--|
A| 3------------------------------| 0------------------------------|
E|--------------------------------|--------------------------------|
Classical Guitar Tablature : http://classicalguitartablature.blogspot.com/
E| 5-- 7-- 7-- 8-- 8 7---- 5------| 5---------- 5-- 0--------------|
B| 5-- 5-- 5-- 5-- 5 5---- 5-- 8--| 8------ 8------ 3------ 3------|
G| 5-- 5-- 5-- 5-- 5 5---- 5-- 5--| 5-------------- 0---------- 0--|
D|---------------------------- 5--|---- 7-------------- 0----------|
A|------------------------------ 8|--------------------------------|
E| 0------------------------------|---------------- 3--------------|
Classical Guitar Tablature : http://classicalguitartablature.blogspot.com/
E|------ 0-- 3------ 0------------|------------ 0------------------|
B|------ 1---- 1---- 1---- 3-- 1--|-------- 1-- 1------ 1-- 0------|
G|------ 0---- 0---- 0------------|-------- 2-- 2------ 2-- 0------|
D|---- 2--------------------------|---- 2-- 2---------- 2------ 0--|
A| 3------------------------------| 0------------------------------|
E|--------------------------------|--------------------------------|
Classical Guitar Tablature : http://classicalguitartablature.blogspot.com/
E|------ 0-- 3------ 0------------|---------- 0------------------ 0|
B|------ 1---- 1---- 1---- 3-- 1--|-------- 1-- 1------ 1-- 0------|
G|------ 0---- 0---- 0------------|-------- 2---------- 2 0---- 0--|
D|---- 2--------------------------|---- 2-- 2---------- 2----------|
A| 3------------------------------| 0------------------------------|
E|--------------------------------|--------------------------------|
Classical Guitar Tablature : http://classicalguitartablature.blogspot.com/
E|---- 3-- 3-- 0-- 0--------------|------------------------------ 0|
B| 1-- 1-- 1-- 1-- 1-- 3-- 3-- 1--| 3---------------------- 3------|
G| 0-- 0-- 0-- 0-- 0-- 0-- 0-- 0--| 2-- 2------ 2-------------- 0--|
D|-------------------- 2-- 2-- 2--| 2------ 2---------- 2----------|
A| 3------------------------------| 0------------------------------|
E|--------------------------------|--------------------------------|
Classical Guitar Tablature : http://classicalguitartablature.blogspot.com/
E|---- 3-- 3-- 0-- 0--------------| 3------------------------ 0 3--|
B| 1-- 1-- 1-- 1-- 1-- 3-- 3-- 1--| 0---------- 0------------------|
G| 0-- 0-- 0-- 0-- 0-- 0-- 0-- 0--| 0------ 0-------------- 0------|
D|-------------------- 2-- 2-- 2--|---- 0-------------- 0----------|
A| 3------------------------------|--------------------------------|
E|--------------------------------| 0------------------------------|
Classical Guitar Tablature : http://classicalguitartablature.blogspot.com/
E| 5-------------- 0--------------|---------------------------- 0--|
B| 5-- 8-- 8-- 5-- 1 3---- 3-- 1--| 3------------------------------|
G| 5-- 5-- 5-- 5 0-- 0---- 0-- 0--|---- 2------ 2---------- 0 2----|
D|---- 5-- 5-- 5---- 2---- 2-- 2--| 3------ 3---------- 2----------|
A| 0------------------------------|--------------------------------|
E|-------------- 3-------------- 1|---------------- 0--------------|
Classical Guitar Tablature : http://classicalguitartablature.blogspot.com/
E|---------------- 0-- 3------ 0--|------------------------------ 0|
B| 3------ 3---- 3 0------ 3------|--------------------------------|
G| 5---------- 5-- 0--------------|---- 2------ 2---------- 0-- 0--|
D|---- 3--------------------------|-------- 2---------- 0----------|
A| 5------------------------------| 0------------------------------|
E|---------------- 3--------------|---------------- 3--------------|
Classical Guitar Tablature : http://classicalguitartablature.blogspot.com/
E|---- 3-- 3-- 0-- 0--------------|------------------------------ 0|
B| 1-- 1-- 1-- 1-- 1-- 3-- 3-- 1--| 3---------------------- 3------|
G| 0-- 0-- 0-- 0-- 0-- 0-- 0-- 0--| 2-- 2------ 2-------------- 0--|
D|-------------------- 2-- 2-- 2--| 2------ 2---------- 2----------|
A| 3------------------------------| 0------------------------------|
E|--------------------------------|--------------------------------|
Classical Guitar Tablature : http://classicalguitartablature.blogspot.com/
E|---- 3-- 3-- 0-- 0--------------| 3------------------------ 0 3--|
B| 1-- 1-- 1-- 1-- 1-- 3-- 3-- 1--| 0---------- 0------------------|
G| 0-- 0-- 0-- 0-- 0-- 0-- 0-- 0--| 0------ 0-------------- 0------|
D|-------------------- 2-- 2-- 2--|---- 0-------------- 0----------|
A| 3------------------------------|--------------------------------|
E|--------------------------------| 0------------------------------|
Classical Guitar Tablature : http://classicalguitartablature.blogspot.com/
E| 5-------------- 0--------------|---------------------------- 0--|
B| 5-- 8-- 8-- 5-- 1 3---- 3-- 1--| 3------------------------------|
G| 5-- 5-- 5-- 5 0-- 0---- 0-- 0--|---- 2------ 2---------- 0 2----|
D|---- 5-- 5-- 5---- 2---- 2-- 2--| 3------ 3---------- 2----------|
A| 0------------------------------|--------------------------------|
E|-------------- 3-------------- 1|---------------- 0--------------|
Classical Guitar Tablature : http://classicalguitartablature.blogspot.com/
E|--------------------------------|------------------------ 0-- 3--|
B| 3------ 3---- 5 3-- 1------ 1--| 1---------- 1---------- 1-- 1--|
G| 5---------- 5-- 0------ 2------| 0------ 0------------------ 0--|
D|---- 3---------- 0--------------|---- 2-------------- 2----------|
A| 5------------------------------| 3-------------- 3--------------|
E|---------------- 3--------------|--------------------------------|
Classical Guitar Tablature : http://classicalguitartablature.blogspot.com/
E| 8-- 7-- 7-- 5 5----------------|------------ 5------------ 5 7--|
B| 5-- 5-- 5-- 5 5---- 8-- 5------| 5------ 8-- 5------------------|
G| 5-- 5-- 5-- 5 5---- 5------ 7--| 5------ 5-- 5-------- 5--------|
D|-------------------- 5----------|---- 5---- 7-------- 7----------|
A| 0---------- 0-- 0--------------| 7------------ 8----------------|
E|--------------------------------|--------------------------------|
Classical Guitar Tablature : http://classicalguitartablature.blogspot.com/
E| 8-- 7-- 7-- 5 5----------------| 0---------------------- 0-- 3--|
B| 5-- 5-- 5-- 5 5---- 8-- 5------| 0---------------------- 0-- 0--|
G| 5-- 5-- 5-- 5 5---- 5------ 7--| 0------ 0-------------- 0-- 0--|
D|-------------------- 5----------|---- 0-------------- 0----------|
A| 0---------- 0-- 0--------------|--------------------------------|
E|--------------------------------| 0---------- 0-- 0--------------|
Classical Guitar Tablature : http://classicalguitartablature.blogspot.com/
E| 8-- 7-- 7------ 5---------- 5--| 3-- 5-- 3----------------------|
B|10--10--10--10-- 8-- 8-- 8-- 8--| 0-- 0-- 0-- 1---------- 1-- 1--|
G| 9-- 9-- 9-- 9-- 7-- 7-- 7-- 7--| 0-- 0-- 0-- 2------------ 2----|
D|-------------------- 5-- 5------|------------ 2------ 2----------|
A| 8------------------------------|---------------- 0--------------|
E|---------------- 7--------------| 0------------------------------|
Classical Guitar Tablature : http://classicalguitartablature.blogspot.com/
E|--------------------------------|--------------------------------|
B| 3-- 5 5-- 3---- 3 1-- 1--------| 3-------------------------- 1--|
G| 5-- 5 5-- 5------ 0-------- 2--| 0------ 0---- 0------ 0-- 2----|
D| 3-- 3-- 3-- 3 2-- 2------------| 2-- 2------ 2------ 2----------|
A| 5---------------------------- 0|---------------- 0--------------|
E|-------------- 0----------------|--------------------------------|
Classical Guitar Tablature : http://classicalguitartablature.blogspot.com/
E|--------------------------------|--------------------------------|
B| 3-- 5-- 5-- 3-- 3 1---- 1------| 1------------------------------|
G| 5-- 5-- 5-- 5-- 0---------- 2--| 0------ 0-------------- 0------|
D| 3-- 3-- 3-- 3 0----------------| 2-- 2-------------- 2------ 2--|
A| 5------------------------------| 3---------- 3-- 3--------------|
E|-------------- 3----------------|--------------------------------|
Classical Guitar Tablature : http://classicalguitartablature.blogspot.com/
E|---------------- 7---- 7--------| 3 5 3--------------------------|
B| 8---------- 8--10--------10----| 0-------------------------- 1--|
G| 7------ 7-- 7-- 9-- 9----------| 0------ 5-------------- 2------|
D| 9-- 9--------------------------|------------ 0------ 2----------|
A| 7---------- 7-- 8--------------|---------------- 0--------------|
E|--------------------------------| 0------------------------------|
Classical Guitar Tablature : http://classicalguitartablature.blogspot.com/
E|--------------------------------| 5-------- 3 5-- 3--------------|
B| 3 5 3------------------ 5-- 6--| 3-------- 3 3-- 3---------- 3--|
G| 5 5 5------ 5---------- 5-- 5--| 4------ 4 4 4-- 4------ 4------|
D| 3 3 3-- 3---------- 3-- 3-- 3--|---- 5-------------- 5----------|
A| 5-------------- 5--------------|--------------------------------|
E|--------------------------------| 3-------------- 3--------------|
Classical Guitar Tablature : http://classicalguitartablature.blogspot.com/
E|---------------- 0------ 3------| 8-- 7-- 7-- 5 5----------------|
B|---------------- 0------ 5------| 5-- 5-- 5-- 5 5---- 8-- 5------|
G|-------- 4------ 0------ 4------| 5-- 5-- 5-- 5 5---- 5------ 7--|
D|---- 5------ 5------ 0 5---- 5--|-------------------- 5----------|
A|--------------------------------| 0---------- 0-- 0--------------|
E| 3-------------- 0------ 3------|--------------------------------|
Classical Guitar Tablature : http://classicalguitartablature.blogspot.com/
E|------------ 5------------ 5 7--| 8-- 7-- 7-- 5 5----------------|
B| 5------ 8-- 5------------------| 5-- 5-- 5-- 5 5---- 8-- 5------|
G| 5------ 5-- 5-------- 5--------| 5-- 5-- 5-- 5 5---- 5------ 7--|
D|---- 5---- 7-------- 7----------|-------------------- 5----------|
A| 7------------ 8----------------| 0---------- 0-- 0--------------|
E|--------------------------------|--------------------------------|
Classical Guitar Tablature : http://classicalguitartablature.blogspot.com/
E| 0---------------------- 0-- 3--| 8-- 7-- 7------ 5---------- 5--|
B| 0---------------------- 0-- 0--|10--10--10--10-- 8-- 8-- 8-- 8--|
G| 0------ 0-------------- 0-- 0--| 9-- 9-- 9-- 9-- 7-- 7-- 7-- 7--|
D|---- 0-------------- 0----------|-------------------- 5-- 5------|
A|--------------------------------| 8------------------------------|
E| 0---------- 0-- 0--------------|---------------- 7--------------|
Classical Guitar Tablature : http://classicalguitartablature.blogspot.com/
E| 3-- 5-- 3----------------------|--------------------------------|
B| 0-- 0-- 0-- 1---------- 1-- 1--| 3-- 5 5-- 3---- 3 1-- 1--------|
G| 0-- 0-- 0-- 2------------ 2----| 5-- 5 5-- 5------ 0-------- 2--|
D|------------ 2------ 2----------| 3-- 3-- 3-- 3 2-- 2------------|
A|---------------- 0--------------| 5---------------------------- 0|
E| 0------------------------------|-------------- 0----------------|
Classical Guitar Tablature : http://classicalguitartablature.blogspot.com/
E|--------------------------------|--------------------------------|
B| 3-------------------------- 1 3|---- 5-- 5-- 3-- 3------ 3---- 3|
G| 0------ 0---- 0------ 0-- 2-- 5|---- 5-- 5-- 5-- 5-------- 5----|
D| 2-- 2------ 2------ 2----------| 3-- 3-- 3-- 3------ 3----------|
A|---------------- 0--------------| 5---------- 5-- 5--------------|
E|--------------------------------|--------------------------------|
Classical Guitar Tablature : http://classicalguitartablature.blogspot.com/
E|------------ 8------------------|------------------------ 5-- 7--|
B| 5-- 8-- 5--10------10----------|--------------------------------|
G| 5-- 5-- 5-- 9------ 9----------|--------------------------------|
D| 5-- 5-- 5----------10----------|--------------------------------|
A| 7---------- 8------------------|--------------------------------|
E|--------------------------------|--------------------------------|
Classical Guitar Tablature : http://classicalguitartablature.blogspot.com/
E| 8-- 7-- 5-- 3-- 0--------------| 0-- 3-- 3-- 0-- 0------ 0------|
B| 5-- 5-- 5-- 5-- 1-- 3-- 1------| 1-- 1-- 1-- 1-- 1------------ 0|
G| 5-- 5-- 5-- 5-- 2-- 2-- 0-- 2--| 0-- 0-- 0-- 0-- 0---------- 2--|
D|-------------------- 3-- 0------|-------------------- 2----------|
A| 0------------------------------| 3------------------------------|
E|-------- 0------ 1------ 3------|--------------------------------|
Classical Guitar Tablature : http://classicalguitartablature.blogspot.com/
E|---- 0-- 0----------------------|-------- 0-- 3-- 8-- 7-- 5-- 3--|
B| 1-- 1-- 1-- 1-- 1--------------| 1-- 3 1-------- 5-- 5-- 5------|
G| 2-- 2-- 2-- 2-- 2--------------| 2-------------- 5-- 5-- 5------|
D| 2---------- 2-- 2-- 2------ 2--| 3------------------------------|
A| 0------------------------------|---------------- 0--------------|
E|------------------------ 3------| 1---------------------- 3---- 1|
Classical Guitar Tablature : http://classicalguitartablature.blogspot.com/
E| 0------------------------------|--------------------------------|
B| 1-- 3-- 1----------------------|--------------------------------|
G| 2------------ 2-------------- 2|--------------------------------|
D|------------------------ 3------|--------------------------------|
A|--------------------------------|--------------------------------|
E|------------------ 3------------|--------------------------------|
Classical Guitar Tablature : http://classicalguitartablature.blogspot.com/
E|--------------------------------|--------------------------------|
B|-- 1----------------------------|--------------------------------|
G|-- 0----------------------------|--------------------------------|
D| 2------------------------------|--------------------------------|
A| 3------------------------------|--------------------------------|
E|--------------------------------|--------------------------------|
Classical Guitar Tablature : http://classicalguitartablature.blogspot.com/

0 ความคิดเห็น:

แสดงความคิดเห็น