To celebrate the anniversary, I am giving you (finally...) : iPhone LickByNeck !!!!!!

Could It Be I'm Falling In Love

The Spinners' tune fingerstyle chord melody guitar BASIC arrangement played in the key of Bb.
Classical Guitar Tablature : http://classicalguitartablature.blogspot.com/

Could It Be I'm Falling In Love -The Spinners - BASIC ARRANGEMENT played in the key of Bb
Classical Guitar Tablature : http://classicalguitartablature.blogspot.com/
E|-- 0---- 0---- 2---- 3 5-- 3-- 5|---- 7 7---------------- 7------|
B| 3---------- 3 0------ 0-- 0-- 5|---- 5 5------ 5 5------ 5------|
G| 0---- 0------ 0---- 0 0-- 0-- 5|---- 5 5------ 5 5------ 5------|
D| 2------ 2----------------------|-------------- 5 5--------------|
A| 3------------------------------| 0------------------ 0-- 0------|
E|---------------- 0--------------|--------------------------------|
Classical Guitar Tablature : http://classicalguitartablature.blogspot.com/
E|---- 0-------- 2---- 3 5-- 3-- 5|---- 7 7---------------- 7------|
B| 3-- 3------ 3 0------ 0-- 0-- 5|---- 5 5------ 5 5------ 5------|
G| 0-- 0-- 0---- 0---- 0 0-- 0-- 5|---- 5 5------ 5 5------ 5------|
D| 2------ 2----------------------|-------------- 5 5--------------|
A| 3------------------------------| 0------------------ 0-- 0------|
E|---------------- 0--------------|--------------------------------|
Classical Guitar Tablature : http://classicalguitartablature.blogspot.com/
E|---- 0-------- 2---- 3 5-- 3-- 5|-- 7---- 7----------------------|
B| 3-- 3------ 3 0------ 0-- 0-- 5|---- 5-- 5----------------------|
G| 0-- 0-- 0---- 0---- 0 0-- 0-- 5|---- 5-- 5------------------ 7--|
D| 2------ 2----------------------|--------------------------------|
A| 3------------------------------| 0------ 5----------------------|
E|---------------- 0--------------|--------------------------------|
Classical Guitar Tablature : http://classicalguitartablature.blogspot.com/
E| 3------------------------------| 1---------------------------- 7|
B| 3-------------------------- 3--| 4------ 4---- 4 4---- 4-- 3-- 8|
G| 4------ 4---- 4-- 4---- 4------| 2------ 2-- 2-- 2---- 2------ 7|
D|-------- 5----------------------|---- 1-- 1-- 1-- 1---- 1--------|
A| 5------------------ 5----------| 3---------------- 3------------|
E|--------------------------------|--------------------------------|
Classical Guitar Tablature : http://classicalguitartablature.blogspot.com/
E|--------------------------------|--------------------------------|
B|------ 8---- 8---- 8---- 8------| 8---- 8----10----------10------|
G|-------- 7---- 7-- 7---- 7-- 7--| 8---- 8---- 8---------- 8------|
D|---- 9--------------------------| 7---- 7----10------10------10--|
A|--------------------------------|---------- 0 8------------------|
E| 7------------------ 7----------| 8------------------------------|
Classical Guitar Tablature : http://classicalguitartablature.blogspot.com/
E|--------------------------------|--------------------------------|
B|---- 3-- 3 3 3------ 3----------|-------------- 3-- 4-------- 6--|
G|---- 3-- 3 3 3------ 3---- 3----| 3-- 3---- 5---------------- 3--|
D|---- 3-- 3 3 3------ 3---- 3----| 5-- 5------ 5-------------- 3--|
A|--------------------------------| 6------------------------------|
E| 6-------------- 6---------- 6--|--------------------------------|
Classical Guitar Tablature : http://classicalguitartablature.blogspot.com/
E|--------------------------------|--------------------------------|
B|--------------------------------|-------------- 3-- 4-------- 1--|
G|------ 3---- 3------ 3------ 3--| 3-- 3---- 5---------------- 2--|
D|------ 3---- 3------ 3------ 3--| 5-- 5------ 5-------------- 2--|
A|--------------------------------| 6------------------------------|
E| 6---------- 6-------------- 6--|--------------------------------|
Classical Guitar Tablature : http://classicalguitartablature.blogspot.com/
E|---------------------------- 0--| 2-- 0-- 2----------------------|
B|------------------------ 1------| 0-- 0-- 0-- 3------ 3-- 0-- 3 5|
G|------ 2---- 2------------------| 0-- 0-------------- 0 0---- 0 2|
D|------ 2---- 2------ 2----------|------------ 0------ 0 0------ 4|
A| 0---------- 0------------------|--------------------------------|
E|--------------------------------| 0---------- 0------------------|
Classical Guitar Tablature : http://classicalguitartablature.blogspot.com/
E|--------------------------------|--------------------------------|
B|-- 3----------------------------|------------------ 0------------|
G|-- 2-------- 4------ 4------ 4--| 2------ 0---- 2------------ 0--|
D|-- 4-------- 4------ 4------ 4--|---- 2-- 2------------------ 2--|
A| 2---------- 2-------------- 2--| 0------ 0---- 0----------------|
E|--------------------------------|--------------------------------|
Classical Guitar Tablature : http://classicalguitartablature.blogspot.com/
E|--------------------------------|-------------- 3----------------|
B|--------------------------------|---- 3-- 3-- 6 3-- 6------------|
G|------ 0---- 0---------- 0------|-------- 3---- 3-- 3------ 3----|
D|------ 2---- 1------ 1------ 1--|---- 3-- 3-- 3---- 3------------|
A| 3---------- 3------------------|--------------------------------|
E|--------------------------------| 6------------ 6---------- 6----|
Classical Guitar Tablature : http://classicalguitartablature.blogspot.com/
E|--------------------------------|---------------------------- 6--|
B|-------------- 3-- 4-------- 8--|---- 6-------------- 6 8---- 8--|
G| 3-- 3---- 5---------------- 7--|---- 7------ 7---------- 7-- 7--|
D| 5-- 5------ 5-------------- 8--|---- 8------ 8---------- 8------|
A| 6------------------------------|--------------------------------|
E|--------------------------------| 6---------- 6------------------|
Classical Guitar Tablature : http://classicalguitartablature.blogspot.com/
E|---- 6-- 5----------------------|---------------------------- 0--|
B|---- 8-- 8-- 8 6 8---------- 1--|------------------------ 1------|
G|---- 7 7------------ 7------ 2--|------ 2---- 2------------------|
D|---------------------------- 2--|------ 2---- 2------ 2----------|
A| 6------------------------------| 0---------- 0------------------|
E|--------------------------------|--------------------------------|
Classical Guitar Tablature : http://classicalguitartablature.blogspot.com/
E| 2-- 0-- 2----------------------|--------------------------------|
B| 0-- 0-- 0-- 3------ 3-- 0-- 3 5|-- 3----------------------------|
G| 0-- 0-------------- 0 0---- 0 2|-- 2-------- 4------ 4------ 4--|
D|------------ 0------ 0 0------ 4|-- 4-------- 4------ 4------ 4--|
A|--------------------------------| 2---------- 2-------------- 2--|
E| 0---------- 0------------------|--------------------------------|
Classical Guitar Tablature : http://classicalguitartablature.blogspot.com/
E|--------------------------------|--------------------------------|
B|------------------ 0------------|--------------------------------|
G| 2------ 0---- 2------------ 0--|------ 0---- 0---------- 0------|
D|---- 2-- 2------------------ 2--|------ 2---- 1------ 1------ 1--|
A| 0------ 0---- 0----------------| 3---------- 3------------------|
E|--------------------------------|--------------------------------|
Classical Guitar Tablature : http://classicalguitartablature.blogspot.com/
E|---- 0---------- 2-- 3-- 5-- 3--|--------------------------------|
B| 3-- 3------ 3-- 0-- 0-- 0-- 1--|---- 1-------- 1-- 1---- 1------|
G| 0-- 0-- 0------ 0-- 0------ 0--|---- 0-- 0---- 0-- 0---- 0------|
D| 2------ 2----------------------|---- 2-- 2---- 2-- 2------------|
A| 3------------------------------| 0------------------ 0-------- 0|
E|---------------- 0--------------|--------------------------------|
Classical Guitar Tablature : http://classicalguitartablature.blogspot.com/
E|---- 0---------- 2-- 3-- 5-- 3--|--------------------------------|
B| 3-- 3------ 3-- 0-- 0-- 0-- 1--|---- 1-------- 1-- 1---- 1------|
G| 0-- 0-- 0------ 0-- 0------ 0--|---- 0-- 0---- 0-- 0---- 0------|
D| 2------ 2----------------------|---- 2-- 2---- 2-- 2------------|
A| 3------------------------------| 0------------------ 0-------- 0|
E|---------------- 0--------------|--------------------------------|
Classical Guitar Tablature : http://classicalguitartablature.blogspot.com/
E|---- 0---------- 2-- 3-- 5-- 7--|-------- 3----------------------|
B| 3-- 3------ 3-- 0-- 0-- 0-- 5--|-------- 5------------------ 3--|
G| 0-- 0-- 0------ 0-- 0------ 5--|-------- 5----------------------|
D| 2------ 2----------------------|---- 5--------------------------|
A| 3------------------------------| 0------ 5-- 5-- 5-- 5-- 5-- 5--|
E|---------------- 0--------------|--------------------------------|
Classical Guitar Tablature : http://classicalguitartablature.blogspot.com/
E| 3------------------------------| 1---------------------------- 7|
B| 3-------------------------- 3--| 4------ 4---- 4 4---- 4-- 3-- 8|
G| 4------ 4---- 4-- 4---- 4------| 2------ 2-- 2-- 2---- 2------ 7|
D|-------- 5----------------------|---- 1-- 1-- 1-- 1---- 1--------|
A| 5------------------ 5----------| 3---------------- 3------------|
E|--------------------------------|--------------------------------|
Classical Guitar Tablature : http://classicalguitartablature.blogspot.com/
E|--------------------------------|--------------------------------|
B|------ 8---- 8---- 8---- 8------| 8---- 8----10----------10------|
G|-------- 7---- 7-- 7---- 7-- 7--| 8---- 8---- 8---------- 8------|
D|---- 9--------------------------| 7---- 7----10------10------10--|
A|--------------------------------|---------- 0 8------------------|
E| 7------------------ 7----------| 8------------------------------|
Classical Guitar Tablature : http://classicalguitartablature.blogspot.com/
E|---- 0---------- 2-- 3-- 5-- 3--|--------------------------------|
B| 3-- 3------ 3-- 0-- 0-- 0-- 1--|---- 1-------- 1-- 1---- 1------|
G| 0-- 0-- 0------ 0-- 0------ 0--|---- 0-- 0---- 0-- 0---- 0------|
D| 2------ 2----------------------|---- 2-- 2---- 2-- 2------------|
A| 3------------------------------| 0------------------ 0-------- 0|
E|---------------- 0--------------|--------------------------------|
Classical Guitar Tablature : http://classicalguitartablature.blogspot.com/
E|---- 0---------- 2-- 3-- 5-- 3--|--------------------------------|
B| 3-- 3------ 3-- 0-- 0-- 0-- 1--|---- 1-------- 1-- 1---- 1------|
G| 0-- 0-- 0------ 0-- 0------ 0--|---- 0-- 0---- 0-- 0---- 0------|
D| 2------ 2----------------------|---- 2-- 2---- 2-- 2------------|
A| 3------------------------------| 0------------------ 0-------- 0|
E|---------------- 0--------------|--------------------------------|
Classical Guitar Tablature : http://classicalguitartablature.blogspot.com/
E|---- 0---------- 2-- 3-- 5-- 7--|-------- 3----------------------|
B| 3-- 3------ 3-- 0-- 0-- 0-- 5--|-------- 5------------------ 3--|
G| 0-- 0-- 0------ 0-- 0------ 5--|-------- 5----------------------|
D| 2------ 2----------------------|---- 5--------------------------|
A| 3------------------------------| 0------ 5-- 5-- 5-- 5-- 5-- 5--|
E|---------------- 0--------------|--------------------------------|
Classical Guitar Tablature : http://classicalguitartablature.blogspot.com/
E| 3------------------------------| 1---------------------------- 7|
B| 3-------------------------- 3--| 4------ 4---- 4 4---- 4-- 3-- 8|
G| 4------ 4---- 4-- 4---- 4------| 2------ 2-- 2-- 2---- 2------ 7|
D|-------- 5----------------------|---- 1-- 1-- 1-- 1---- 1--------|
A| 5------------------ 5----------| 3---------------- 3------------|
E|--------------------------------|--------------------------------|
Classical Guitar Tablature : http://classicalguitartablature.blogspot.com/
E|--------------------------------|-------- 5-------- 6---------- 8|
B|------ 8---- 8---- 8---- 8------| 8------ 8-------- 6---------- 6|
G|-------- 7---- 7-- 7---- 7-- 7--| 8------ 7-------- 5---------- 5|
D|---- 9--------------------------|---- 7------ 5---------- 5------|
A|--------------------------------|--------------------------------|
E| 7------------------ 7----------| 8------ 6-------- 5------------|
Classical Guitar Tablature : http://classicalguitartablature.blogspot.com/
E|------------------------10------|--------------------------------|
B|----------------------10--------|--------------------------------|
G|-------------------- 9----------|--------------------------------|
D|------ 4------------------------|--------------------------------|
A|--------------------10----------|--------------------------------|
E| 4------------------------------|--------------------------------|
Classical Guitar Tablature : http://classicalguitartablature.blogspot.com/

0 ความคิดเห็น:

แสดงความคิดเห็น