To celebrate the anniversary, I am giving you (finally...) : iPhone LickByNeck !!!!!!

Creep - Radio Head

Radio Head's tune fingerstyle chord melody guitar BASIC arrangement played in the key of C.

Classical Guitar Tablature : http://classicalguitartablature.blogspot.com/
Creep - Radio Head - BASIC ARRANGEMENT played in the key of C
Classical Guitar Tablature : http://classicalguitartablature.blogspot.com/
E|--------------------------------|--------------------------------|
B|---------------- 3-- 1-- 0-- 1--|--------------------------------|
G|---------------------------- 0--|-------- 0---- 0---- 0------ 0--|
D|---------------------------- 2--|---- 2------ 2---- 2-------- 2--|
A|--------------------------------| 3---------------------- 3------|
E|--------------------------------|--------------------------------|
Classical Guitar Tablature : http://classicalguitartablature.blogspot.com/
E|--------------------------------|--------------------------------|
B|-------- 1-- 1 1 1-- 3-- 1-- 0--|--------------------------------|
G|-------- 0-- 0 0 0-- 0-- 0-- 1--|------ 1------ 1---- 1------ 1--|
D|---- 2------ 2 2 2-- 2-- 2-- 0--|---- 0------ 0---- 0-------- 0--|
A| 3-------------- 3--------------|--------------------------------|
E|--------------------------------| 0---------------------- 0------|
Classical Guitar Tablature : http://classicalguitartablature.blogspot.com/
E|---------------------------- 0--|--------------------------------|
B|-------- 0-- 0-- 3-- 3-- 1-- 1--|---- 1--------------------------|
G|-------- 1-- 1-- 1-- 1-- 1-- 2--|---- 2------ 2---------- 2-- 2--|
D|---- 0------ 0-- 0-- 0-- 0------|---- 3-- 3---- 3---- 3------ 3--|
A|--------------------------------|--------------------------------|
E| 0-------------- 0--------------| 1-------------- 1--------------|
Classical Guitar Tablature : http://classicalguitartablature.blogspot.com/
E|--------------------------------|--------------------------------|
B|------ 1------ 3---- 1-- 0-- 1--|--------------------------------|
G|------ 2---- 2 2---- 2-- 2-- 1--|-------- 1---- 1-------- 1---- 1|
D|---- 3---- 3-- 3---- 3-- 3-- 3--|---- 3------ 3------ 3------ 3--|
A|--------------------------------|--------------------------------|
E| 1-------------- 1--------------| 1-------------- 1--------------|
Classical Guitar Tablature : http://classicalguitartablature.blogspot.com/
E|--------------------------------|--------------------------------|
B|---------------- 3-- 1-- 0-- 1--|--------------------------------|
G|------ 1------ 1------------ 0--|---- 0---------------- 0------ 0|
D|---- 3---- 3-- 3------------ 2--|------------ 3---- 3 2------ 2--|
A|--------------------------------| 3-------------- 3--------------|
E| 1-------------- 1--------------|--------------------------------|
Classical Guitar Tablature : http://classicalguitartablature.blogspot.com/
E|--------------------------------|--------------------------------|
B|---------- 1 1-- 1-- 3-- 1-- 0--|--------------------------------|
G|-------- 0------ 0-- 0-- 0------|-------- 1---- 1-------- 1---- 1|
D|---- 2---------- 2-- 2-- 2------|---- 0------ 0------ 0------ 0--|
A| 3-------------- 3--------------|--------------------------------|
E|--------------------------------| 0-------------- 0--------------|
Classical Guitar Tablature : http://classicalguitartablature.blogspot.com/
E|---------------------------- 0--|--------------------------------|
B|------ 0------ 3---- 3-- 1-- 1--|---- 1--------------------------|
G|------ 1---- 1 1---- 1-- 1-- 2--|---- 2------ 2---------- 2---- 2|
D|---- 0---- 0-- 0---- 0-- 0------|-------- 3---- 3---- 3------ 3--|
A|--------------------------------|--------------------------------|
E| 0-------------- 0--------------| 1-------------- 1--------------|
Classical Guitar Tablature : http://classicalguitartablature.blogspot.com/
E|--------------------------------|--------------------------------|
B|-------------- 1---- 3-- 1-- 4--|---- 1--------------------------|
G|------ 2---- 2 2---- 2-- 2-- 1--|---- 1------ 1 1 1--------------|
D|---- 3------ 3 3---- 3-- 3-- 3--|---- 3-- 3---- 3 3--------------|
A|--------------------------------|--------------------------------|
E| 1-------------- 1--------------| 1-------------- 1 1------------|
Classical Guitar Tablature : http://classicalguitartablature.blogspot.com/
E|------------------------ 0-- 0--|--------------------------------|
B|---------------- 1-- 3------ 1--|--------------------------------|
G| 1 1------------ 1-- 1------ 0--|-------- 0---- 0-- 0-- 0------ 0|
D| 3 3------------ 3-- 3----------|-------- 2---- 2-- 2-- 2------ 2|
A|--------------------------------| 3-- 3-- 3-- 3------ 3 3-- 3-- 3|
E| 1 1-------- 1-- 1-- 1----------|--------------------------------|
Classical Guitar Tablature : http://classicalguitartablature.blogspot.com/
E|---------------------------- 0--|--------------------------------|
B|-------------- 1---- 3-- 1-- 0--|---- 0--------------------------|
G|-- 0-- 0---- 0 0---- 0-- 0-- 1--|---- 1------ 2------ 1----------|
D|-- 2-- 2---- 2 2---- 2-- 2------|---- 0------ 0------ 0----------|
A|---- 3-- 3 3---- 3-- 3-- 3------|--------------------------------|
E|--------------------------------| 0-- 0-- 0-- 0-- 0-- 0-- 0-- 0--|
Classical Guitar Tablature : http://classicalguitartablature.blogspot.com/
E|-------- 0-- 0-- 1-- 0------ 0--|--------------------------------|
B|-------- 0-- 0-- 1-- 0-- 3-- 1--|------------ 3 1----------------|
G| 1------ 1-- 1-- 1-- 1-- 1-- 2--|------------ 2 2----------------|
D| 0---------------------- 0------|------------ 3 3----------------|
A|--------------------------------|--------------------------------|
E| 0-- 0-- 0-- 0-- 0-- 0-- 0------| 1-- 1-- 1-- 1 1---- 1-- 1-- 1--|
Classical Guitar Tablature : http://classicalguitartablature.blogspot.com/
E|--------------------------------|-------------- 3 1--------------|
B|---------------- 1-- 3-- 1-- 4--|---- 1-------- 1----------------|
G| 2------ 2------ 2-- 2-- 2-- 1--|---- 1--------------------------|
D| 3------ 3------ 3-- 3-- 3-- 3--|--------------------------------|
A|--------------------------------|--------------------------------|
E| 1-- 1-- 1-- 1-- 1-- 1-- 1------| 1-- 1-- 1-- 1-- 1-- 1-- 1-- 1--|
Classical Guitar Tablature : http://classicalguitartablature.blogspot.com/
E|--------------------------------| 8------------------------------|
B|--------------------------------| 8------------------------------|
G| 1------ 1------ 1------ 1------| 9-------------- 9------ 9------|
D| 3------ 3------ 3------ 3------|----------------10------10------|
A|--------------------------------|--------------------------------|
E| 1-- 1-- 1-- 1-- 1-- 1-- 1-- 1--| 8-- 8-- 8-- 8-- 8-- 8-- 8-- 8--|
Classical Guitar Tablature : http://classicalguitartablature.blogspot.com/
E|10---- 8------------------------|----------12--------------10 8 7|
B| 8---- 8--12------ 8-------- 9--|------------ 9------------ 9-- 9|
G| 9---- 9-- 9------ 9------------|------------ 7------------ 7 7--|
D|----------10------10------------|--------------------------------|
A|--------------------------------|--------------------------------|
E| 8-- 8-- 8-- 8 8-- 8---- 8-- 8--| 0-- 0-- 0-- 0-- 0-- 0-- 0-- 0--|
Classical Guitar Tablature : http://classicalguitartablature.blogspot.com/
E|------------------------------ 8|--------------------------------|
B|-------------- 9-------- 9----10|--------------------------------|
G| 7------------ 7-------- 7----10|--------10------10------10------|
D|--------------------------------|--------------------------------|
A|------------------------------ 8|---- 8-- 8-- 8-- 8-- 8-- 8-- 8--|
E| 0-- 0-- 0-- 0-- 0-- 0-- 0-- 0--|--------------------------------|
Classical Guitar Tablature : http://classicalguitartablature.blogspot.com/
E|10---- 8------------------------|-------------------------- 8----|
B|10----10----12---- 8-------- 9--|------------11------------11----|
G|------------10------10----------|------------ 8------------ 8----|
D|--------------------------------|------------10------------------|
A| 8 8---- 8-- 8-- 8-- 8-- 8-- 8--| 8-- 8-- 8-- 8-- 8-- 8-- 8 8-- 8|
E|--------------------------------|--------------------------------|
Classical Guitar Tablature : http://classicalguitartablature.blogspot.com/
E|----------10----------------10--|-------------------------- 8----|
B|---------- 9--------------------|-------------------------- 8----|
G|---------- 8--------------------|------ 9------ 9------ 9-- 9----|
D|--------------------------------|------10------10------10--------|
A|-- 8-- 8-- 8-- 8-- 8-- 8-- 8----|--------------------------------|
E|------------------------------ 8|---- 8 8---- 8 8---- 8 8-- 8-- 8|
Classical Guitar Tablature : http://classicalguitartablature.blogspot.com/
E|---------------------------- 7--|--------------------------------|
B|--------------------------------|---------------------------- 9--|
G|------ 9------ 9------ 9--------|-------- 7------ 7------ 7-- 7--|
D|------10------10------10--------|-------- 9------ 9------ 9-- 9--|
A|--------------------------------|--------------------------------|
E|-- 8-- 8---- 8-- 8-- 8 8-- 8----| 0-- 0-- 0-- 0-- 0-- 0-- 0-- 0--|
Classical Guitar Tablature : http://classicalguitartablature.blogspot.com/
E|------------------------------10|-------------------------- 8----|
B|------------------------------10|--------------------------10----|
G|-------- 7------ 7---- 7------10|--------10------10------1010----|
D|-------- 9------ 9---- 9--------|--------------------------------|
A|--------------------------------| 8-- 8-- 8-- 8-- 8 8---- 8-- 8--|
E| 0-- 0-- 0-- 0-- 0-- 0-- 0-- 0--|--------------------------------|
Classical Guitar Tablature : http://classicalguitartablature.blogspot.com/
E|---------------------------- 8--|--------------------------------|
B|----------------------12---- 9--|--------------------------------|
G|--------------10------------10--|--------10------10------10------|
D|--------------------------------|--------10------10------10------|
A| 8-- 8-- 8-- 8 8-- 8-- 8--------| 8-- 8-- 8-- 8-- 8-- 8-- 8-- 8--|
E|--------------------------------|--------------------------------|
Classical Guitar Tablature : http://classicalguitartablature.blogspot.com/
E|--------------------------------|--------------------------------|
B|---------------- 3---------- 1--|--------------------------------|
G| 1-------------- 5-- 5-- 4-- 0--|--------------------------------|
D|---- 3------ 3-- 3---------- 2--|--------------------------------|
A|--------------------------------| 3------------------------------|
E| 1------ 3---- 4----------------|--------------------------------|
Classical Guitar Tablature : http://classicalguitartablature.blogspot.com/

0 ความคิดเห็น:

แสดงความคิดเห็น