To celebrate the anniversary, I am giving you (finally...) : iPhone LickByNeck !!!!!!

Dancing In The Street - Martha And The Vandellas

Martha And The Vandellas' tune fingerstyle chord melody guitar BASIC arrangement played in the key of E.

Dancing In The Street - Martha And The Vandellas - BASIC ARRANGEMENT played in the key of E
Classical Guitar Tablature : http://classicalguitartablature.blogspot.com/
E|--------------------------------|--------------------------------|
B| 3-------------- 3--------------| 3-------------- 3--------------|
G| 1------------------ 1------ 1--| 1-------------- 1-- 1----------|
D| 0-------------- 0-- 0------ 0--| 0-------------- 0-- 0------ 0--|
A|--------------------------------|--------------------------------|
E| 0------ 0------ 0-- 0------ 0--| 0------ 0------ 0-- 0------ 0--|
Classical Guitar Tablature : http://classicalguitartablature.blogspot.com/
E|-- 0-- 0---- 2 0----------------|--------------------------------|
B|---- 3---- 3-- 0-- 0------------| 3-------------- 3--------------|
G|-- 1-- 1------ 1----------------| 1-------------- 1-- 1----------|
D|------------------ 0------------| 0-------------- 0-- 0---- 0----|
A|--------------------------------|--------------------------------|
E| 0---- 0-------- 0-- 0------ 0--| 0------ 0------ 0-- 0------ 0 0|
Classical Guitar Tablature : http://classicalguitartablature.blogspot.com/
Classical Guitar Tablature : http://classicalguitartablature.blogspot.com/
E|------------------ 7------------|--------------------------------|
B|-- 5-- 5---- 7 5-- 5------------|--------------------------------|
G|-- 7------ 7-- 7-- 7------------| 6-------------- 7--------------|
D|-- 6---------- 6----------------| 6-------------- 6---------- 6--|
A|--------------------------------|--------------------------------|
E|------ 0-------- 0-- 0------ 0--| 0------ 0------ 0-- 0------ 0--|
Classical Guitar Tablature : http://classicalguitartablature.blogspot.com/
E| 4---- 2---- 0---------------- 0|------------ 4------------------|
B| 3---- 3---- 3------------ 3-- 3|------ 3---- 3-------------- 3--|
G| 1---- 1---- 1-------------- 1 1|------ 1---- 1-------------- 1--|
D|-------------------------- 0----|------ 0-------------------- 0--|
A|--------------------------------|--------------------------------|
E| 0------ 0------ 0-- 0---- 0----| 0---- 0-------- 0-- 0------ 0--|
Classical Guitar Tablature : http://classicalguitartablature.blogspot.com/
E| 0------ 0------ 0-- 2-- 0-- 4--|--------------------------------|
B| 3------ 3-- 3------ 3-- 0-- 0--|--------------------------------|
G| 1------ 1------ 1-- 1-- 1-- 1--|---------------- 1--------------|
D|------------------------ 0------|---------------- 0---------- 0--|
A|--------------------------------|--------------------------------|
E| 0------ 0------ 0-- 0------ 0--| 0------ 0------ 0-- 0------ 0--|
Classical Guitar Tablature : http://classicalguitartablature.blogspot.com/
E| 4---- 2---- 0------------------|---- 2------ 0------------------|
B| 3---- 3---- 3------------ 3-- 3|---- 3------ 3-------------- 3--|
G| 1---- 1---- 1-------------- 1 1|---- 1------ 1-------------- 1--|
D|-------------------------- 0----| 0-------------------------- 0--|
A|--------------------------------|--------------------------------|
E| 0------ 0------ 0-- 0---- 0----| 0------ 0------ 0-- 0------ 0--|
Classical Guitar Tablature : http://classicalguitartablature.blogspot.com/
E| 0------ 0------ 0-- 2-- 0-- 4--|-------- 4-- 2-- 4-- 2-- 0-- 4--|
B| 3------ 3-- 3------ 3-- 0------|-------- 3-- 3------ 3-- 0-- 0--|
G| 1------ 1------ 1-- 1-- 1------|-------- 1-- 1-- 1-- 1-- 1------|
D|------------------------ 0------|------------------------ 0------|
A|--------------------------------|--------------------------------|
E| 0------ 0------ 0-- 0------ 0--| 0------ 0------ 0-- 0------ 0--|
Classical Guitar Tablature : http://classicalguitartablature.blogspot.com/
E|-------- 0-- 0-- 0-- 2------ 4--|-------- 4-- 2-- 4-- 2-- 0-- 2--|
B|-------- 0---------- 0------ 3--|-------- 3-- 3------ 3------ 3--|
G|-------- 1-- 1-- 1-- 1------ 4--|-------- 1-- 1-- 1-- 1-- 1------|
D|--------------------------------|------------------------ 0------|
A|--------------------------------|--------------------------------|
E| 0------ 0------ 0-- 0------ 0--| 0------ 0------ 0-- 0------ 0--|
Classical Guitar Tablature : http://classicalguitartablature.blogspot.com/
E|-------- 0-- 0-- 0-- 2------ 4--|-------- 4-- 2-- 4-- 2-- 0-- 4--|
B|-------- 0---------- 0------ 3--|-------- 3-- 3------ 3-- 0-- 0--|
G|-------- 1-- 1-- 1-- 1------ 4--|-------- 1-- 1-- 1-- 1-- 1------|
D|--------------------------------|------------------------ 0------|
A|--------------------------------|--------------------------------|
E| 0------ 0------ 0-- 0------ 0--| 0------ 0------ 0-- 0------ 0--|
Classical Guitar Tablature : http://classicalguitartablature.blogspot.com/
E|-------- 0-- 0-- 0-- 2------ 4--|-------- 4-- 2-- 4-- 2-- 0-- 5--|
B|-------- 0---------- 0------ 3--|-------- 3-- 3------ 3-- 5-- 5--|
G|-------- 1-- 1-- 1-- 1------ 4--|-------- 1-- 1-- 1-- 1-- 7-- 7--|
D|--------------------------------|------------------------ 6------|
A|--------------------------------|--------------------------------|
E| 0------ 0------ 0-- 0------ 0--| 0------ 0------ 0-- 0------ 0--|
Classical Guitar Tablature : http://classicalguitartablature.blogspot.com/
E|------ 5---- 4------------------|---------------- 5-- 4----------|
B|------ 5---- 5------ 7-- 5-- 7--|---- 7---------- 5---------- 7--|
G|-------- 4-- 4---- 4------------|---------------- 6-- 6------ 6--|
D|---------------------------- 7--|---- 7---------------------- 7--|
A|--------------------------------| 0------ 0------ 0-- 0----------|
E| 0------ 0------ 0-- 0------ 0--|--------------------------------|
Classical Guitar Tablature : http://classicalguitartablature.blogspot.com/
E|---------------------------- 5--|------------ 5------------------|
B|---- 5------------------ 5------|------------ 5-- 8-- 7-- 5-- 7--|
G|---- 6-------------- 6-- 6-- 6--|------------ 6-- 6-- 6-- 6-- 6--|
D|---- 7-------------- 7----------|---------------- 5-- 5------ 5--|
A| 0------ 0------ 0-- 0------ 0--| 0------ 0------ 0-- 0------ 0--|
E|--------------------------------|--------------------------------|
Classical Guitar Tablature : http://classicalguitartablature.blogspot.com/
E|-------------- 4-- 4------ 4----| 4---- 2---- 0------------------|
B|------------ 7---- 7------ 5----| 3---- 3---- 3------------ 3-- 3|
G|------------ 6---- 6------ 6----| 1---- 1---- 1-------------- 1 1|
D|--------------------------------|-------------------------- 0----|
A| 0------ 0------ 0-- 0---- 0----|--------------------------------|
E|--------------------------------| 0------ 0------ 0-- 0---- 0----|
Classical Guitar Tablature : http://classicalguitartablature.blogspot.com/
E|---- 2------ 0------------------| 0------ 0------ 0-- 2-- 0-- 4--|
B|---- 3------ 3-------------- 3--| 3------ 3-- 3------ 3-- 0------|
G|---- 1------ 1-------------- 1--| 1------ 1------ 1-- 1-- 1------|
D| 0-------------------------- 0--|------------------------ 0------|
A|--------------------------------|--------------------------------|
E| 0------ 0------ 0-- 0------ 0--| 0------ 0------ 0-- 0------ 0--|
Classical Guitar Tablature : http://classicalguitartablature.blogspot.com/
E|-------- 4-- 2-- 4-- 2-- 0------|-------- 4---- 4------------ 4--|
B|-------- 3-- 3------ 3-- 0------|-------- 4---- 4-- 7---- 5-- 4--|
G|-------- 1-- 1-- 1-- 1-- 1------|-------- 5---- 5---- 5-- 5-- 5--|
D|------------------------ 0------| 4---------------- 4---- 4------|
A|--------------------------------|--------------------------------|
E| 0------ 0------ 0-- 0------ 0--| 4------ 4---- 4---- 4------ 4--|
Classical Guitar Tablature : http://classicalguitartablature.blogspot.com/
E|---- 4-------------------- 4----| 9------------------------------|
B|---- 4---------------------- 5--| 9---- 9------------------------|
G|---- 5---------------------- 5--| 9---- 9------11-- 9------11----|
D|--------------------------------|------11------11--11------------|
A|--------------------------------|--------------------------------|
E| 4------ 4------ 4-- 4------ 4--| 9------ 9---- 9---- 9---- 9----|
Classical Guitar Tablature : http://classicalguitartablature.blogspot.com/
E|--------------------------------| 4------ 2-- 2------------------|
B|---------------- 9-- 9------ 9--| 2---- 2---- 2------ 5----------|
G|-- 9------------ 9-- 9------ 9--|------ 2---- 2------------------|
D|--------11--11--11--11------11--|-------------------- 2----------|
A|--------------------------------|--------------------------------|
E| 9------ 9------ 9-- 9------ 9--| 2------ 2------ 2-- 2------ 2--|
Classical Guitar Tablature : http://classicalguitartablature.blogspot.com/
E| 5---- 4---- 2---------------- 9|---------- 7--------------------|
B| 2---- 2---- 2---- 5---------- 9|------ 9-- 9------ 7 9---- 9----|
G| 2---- 2---- 2---- 2---------- 8|---------- 8------ 8------ 8----|
D|------------------ 2------------|------ 7---------- 7-------- 7--|
A|--------------------------------|--------------------------------|
E| 2------ 2------ 2 2------ 2-- 7|------ 7------ 7-- 7-------- 7--|
Classical Guitar Tablature : http://classicalguitartablature.blogspot.com/
E| 7-------- 9--------------------| 4---- 2---- 0---------------- 0|
B| 9---- 9-- 9------ 9---- 9-- 9--| 3---- 3---- 3------------ 3-- 3|
G| 8-------- 8------ 8---- 8-- 8--| 1---- 1---- 1-------------- 1 1|
D|-------- 7-------- 7---- 7-- 7--|-------------------------- 0----|
A|--------------------------------|--------------------------------|
E| 7------ 7------ 7-- 7-- 7-- 7--| 0------ 0------ 0-- 0---- 0----|
Classical Guitar Tablature : http://classicalguitartablature.blogspot.com/
E|------------ 4------------------| 0------ 0------ 0-- 2-- 0-- 4--|
B|------ 3---- 3-------------- 3--| 3------ 3-- 3------ 3-- 0-- 0--|
G|------ 1---- 1-------------- 1--| 1------ 1------ 1-- 1-- 1-- 1--|
D|------ 0-------------------- 0--|------------------------ 0------|
A|--------------------------------|--------------------------------|
E| 0---- 0-------- 0-- 0------ 0--| 0------ 0------ 0-- 0------ 0--|
Classical Guitar Tablature : http://classicalguitartablature.blogspot.com/
E|--------------------------------| 4---- 2---- 0------------------|
B|--------------------------------| 3---- 3---- 3------------ 3-- 3|
G|---------------- 1--------------| 1---- 1---- 1-------------- 1 1|
D|---------------- 0---------- 0--|-------------------------- 0----|
A|--------------------------------|--------------------------------|
E| 0------ 0------ 0-- 0------ 0--| 0------ 0------ 0-- 0---- 0----|
Classical Guitar Tablature : http://classicalguitartablature.blogspot.com/
E|---- 2------ 0------------------| 0------ 0------ 0-- 2-- 0-- 4--|
B|---- 3------ 3-------------- 3--| 3------ 3-- 3------ 3-- 0------|
G|---- 1------ 1-------------- 1--| 1------ 1------ 1-- 1-- 1------|
D| 0-------------------------- 0--|------------------------ 0------|
A|--------------------------------|--------------------------------|
E| 0------ 0------ 0-- 0------ 0--| 0------ 0------ 0-- 0------ 0--|
Classical Guitar Tablature : http://classicalguitartablature.blogspot.com/
E|-------- 4-- 2-- 4-- 2-- 0-- 4--|-------- 0-- 0-- 0-- 2------ 4--|
B|-------- 3-- 3------ 3-- 0-- 0--|-------- 0---------- 0------ 3--|
G|-------- 1-- 1-- 1-- 1-- 1------|-------- 1-- 1-- 1-- 1------ 4--|
D|------------------------ 0------|--------------------------------|
A|--------------------------------|--------------------------------|
E| 0------ 0------ 0-- 0------ 0--| 0------ 0------ 0-- 0------ 0--|
Classical Guitar Tablature : http://classicalguitartablature.blogspot.com/
E|-------- 4-- 2-- 4-- 2-- 0-- 2--|-------- 0-- 0-- 0-- 2------ 4--|
B|-------- 3-- 3------ 3------ 3--|-------- 0---------- 0------ 3--|
G|-------- 1-- 1-- 1-- 1-- 1------|-------- 1-- 1-- 1-- 1------ 4--|
D|------------------------ 0------|--------------------------------|
A|--------------------------------|--------------------------------|
E| 0------ 0------ 0-- 0------ 0--| 0------ 0------ 0-- 0------ 0--|
Classical Guitar Tablature : http://classicalguitartablature.blogspot.com/
E|-------- 4-- 2-- 4-- 2-- 0--10--|--------------------------------|
B|-------- 3-- 3------ 3-- 0-- 9--|--------------------------------|
G|-------- 1-- 1-- 1-- 1-- 1-- 9--|--------------------------------|
D|--------------------------------|---------------------------- 9--|
A|--------------------------------|--------------------------------|
E| 0------ 0------ 0-- 0------ 0--| 0-------- 0---- 0-- 0------ 0--|
Classical Guitar Tablature : http://classicalguitartablature.blogspot.com/
E|--------10-- 9------------------|--------------------------------|
B|-------- 9-- 9--12------10------|12------------------------------|
G|---- 9-- 9-- 9-- 9------ 9------| 9------------------------------|
D|---- 9---------- 9------ 9------| 9-------------------------- 9--|
A|--------------------------------|--------------------------------|
E| 0------ 0------ 0-- 0------ 0--| 0------ 0------ 0-- 0------ 0--|
Classical Guitar Tablature : http://classicalguitartablature.blogspot.com/
E|------------------ 9--------10--|--------------------------------|
B|--------------12--12-------- 9--|--------------------------------|
G| 9-------------------------- 9--|--------------------------------|
D| 9------------ 9----------------|---------------------------- 9--|
A|--------------------------------|--------------------------------|
E| 0------ 0------ 0-- 0------ 0--| 0-------- 0---- 0-- 0------ 0--|
Classical Guitar Tablature : http://classicalguitartablature.blogspot.com/
E|--------10-- 9------------------|--------------------------------|
B|-------- 9-- 9--12------10------|12------------------------------|
G|---- 9-- 9-- 9-- 9------ 9------| 9------------------------------|
D|---- 9---------- 9------ 9------| 9-------------------------- 9--|
A|--------------------------------|--------------------------------|
E| 0------ 0------ 0-- 0------ 0--| 0------ 0------ 0-- 0------ 0--|
Classical Guitar Tablature : http://classicalguitartablature.blogspot.com/
E|------------------ 9--------10--|-------- 0-- 2 0----------------|
B|--------------12--12-------- 9--|---------- 3-- 0-- 0------------|
G| 9-------------------------- 9--|---- 9 1------ 1----------------|
D| 9------------ 9----------------|------------------ 0------------|
A|--------------------------------|--------------------------------|
E| 0------ 0------ 0-- 0------ 0--| 0------ 0------ 0-- 0------ 0--|
Classical Guitar Tablature : http://classicalguitartablature.blogspot.com/
E|--------------------------------|------------------ 7------------|
B| 3-------------- 3--------------|-- 5-- 5---- 7 5-- 5------------|
G| 1-------------- 1-- 1----------|-- 7------ 7-- 7-- 7------------|
D| 0-------------- 0-- 0---- 0----|-- 6---------- 6----------------|
A|--------------------------------|--------------------------------|
E| 0------ 0------ 0-- 0------ 0 0|------ 0-------- 0-- 0------ 0--|
Classical Guitar Tablature : http://classicalguitartablature.blogspot.com/
E|--------------------------------|-- 0-- 0---- 2 0----------------|
B|--------------------------------|---- 3---- 3-- 0-- 0------------|
G| 6-------------- 7--------------|-- 1-- 1------ 1----------------|
D| 6-------------- 6---------- 6--|------------------ 0------------|
A|--------------------------------|--------------------------------|
E| 0------ 0------ 0-- 0------ 0--| 0---- 0-------- 0-- 0------ 0--|
Classical Guitar Tablature : http://classicalguitartablature.blogspot.com/
E|--------------------------------|------------------ 7------------|
B| 3-------------- 3--------------|-- 5-- 5---- 7 5-- 5------------|
G| 1-------------- 1-- 1----------|-- 7------ 7-- 7-- 7------------|
D| 0-------------- 0-- 0---- 0----|-- 6---------- 6----------------|
A|--------------------------------|--------------------------------|
E| 0------ 0------ 0-- 0------ 0 0|------ 0-------- 0-- 0------ 0--|
Classical Guitar Tablature : http://classicalguitartablature.blogspot.com/
E|--------------------------------|--------------------------------|
B|--------------------------------|-- 5----------------------------|
G| 6-------------- 7--------------| 7------------------------------|
D| 6-------------- 6---------- 6--| 6------------------------------|
A|--------------------------------|--------------------------------|
E| 0------ 0------ 0-- 0------ 0--| 0------------------------------|
Classical Guitar Tablature : http://classicalguitartablature.blogspot.com/

0 ความคิดเห็น:

แสดงความคิดเห็น