To celebrate the anniversary, I am giving you (finally...) : iPhone LickByNeck !!!!!!

El Mariachi - Desperado - Antonio Banderas

Antonio Banderas' tune fingerstyle chord melody guitar BASIC arrangement played in the key of Em.
You need to install the Flash plugin - http://www.webestools.com/

Classical Guitar Tablature : http://classicalguitartablature.blogspot.com/
El Mariachi - Desperado - Antonio Banderas - BASIC ARRANGEMENT played in the key of Em
Classical Guitar Tablature : http://classicalguitartablature.blogspot.com/
E|--------------------------------| 7-- 7---- 7-- 8---- 7-- 7---- 8|
B|------------------------------ 8| 8---- 8------ 8---- 8-- 8---- 8|
G|---------------------------- 9--| 9-- 9---- 9-- 9---- 9-------- 9|
D|-------------------------- 9----|--------------------------------|
A|--------------------------------|--------------------------------|
E|--------------------------------| 0------ 0-- 0-- 0---- 0---- 0 0|
Classical Guitar Tablature : http://classicalguitartablature.blogspot.com/
E|---- 7--------------------------|-------------- 7-------------- 7|
B|---- 8-- 8----10----10------ 710|----10----10--10----10--10----10|
G|---- 9-------- 8---- 8---- 8-- 8|---- 8---- 8-- 8---- 8-- 8---- 8|
D|-------------- 9---- 9-- 9------| 9-- 9---- 9-------- 9---- 9----|
A|--------------------------------|--------------------------------|
E|------ 0------ 7------ 7--------| 7------ 7-- 7 7------ 7---- 7 7|
Classical Guitar Tablature : http://classicalguitartablature.blogspot.com/
Classical Guitar Tablature : http://classicalguitartablature.blogspot.com/
E|--------------------------------| 7-- 7---- 7-- 8---- 7-- 7---- 8|
B|----10---- 7-- 8---- 8------ 8--| 8---- 8------ 8---- 8-- 8---- 8|
G|---- 8---- 8-- 9---- 9---- 9----| 9-- 9---- 9-- 9---- 9-------- 9|
D|---- 9---- 9-- 9---- 9-- 9------|--------------------------------|
A|--------------------------------|--------------------------------|
E|------ 7------ 0------ 0--------| 0------ 0-- 0-- 0---- 0---- 0 0|
Classical Guitar Tablature : http://classicalguitartablature.blogspot.com/
E|---- 7--------------------------|-------------- 7-------------- 7|
B|---- 8-- 8----10----10------ 710|----10----10--10----10--10----10|
G|---- 9-------- 8---- 8---- 8-- 8|---- 8---- 8-- 8---- 8-- 8---- 8|
D|-------------- 9---- 9-- 9------| 9-- 9---- 9-------- 9---- 9----|
A|--------------------------------|--------------------------------|
E|------ 0------ 7------ 7--------| 7------ 7-- 7 7------ 7---- 7 7|
Classical Guitar Tablature : http://classicalguitartablature.blogspot.com/
E|------------------------------ 0|---- 2---- 0--------------------|
B|----10---- 7-- 8---- 8------ 8 1|---- 1---- 1---- 0--------------|
G|---- 8---- 8-- 9---- 9---- 9-- 2|---- 2---- 2---- 0------ 0---- 2|
D|---- 9---- 9-- 9---- 9-- 9------|---------------- 2-- 2----------|
A|------------------------------ 0|-------- 0-- 0---------------- 2|
E|------ 7------ 0------ 0--------|---------------- 0---- 0-- 0----|
Classical Guitar Tablature : http://classicalguitartablature.blogspot.com/
E|------------------------------ 0|---- 2---- 0--------------------|
B|------------------------------ 1|---- 1---- 1---- 0--------------|
G|---- 0------------------------ 2|---- 2---- 2---- 0------ 0---- 2|
D|-- 1------ 4---- 2--------------|---------------- 2-- 2----------|
A|---- 2------ 2-- 2---------- 2--| 0------ 0-- 0---------------- 2|
E|---------------- 0-- 3----------|---------------- 0---- 0---- 0--|
Classical Guitar Tablature : http://classicalguitartablature.blogspot.com/
E|--------------------------------|--------------------------------|
B|--------------------------------|--------------------------------|
G|---- 0--------------------------|--------------------------------|
D|-- 1-------- 4-- 2--------------|--------------------------------|
A|---- 2------ 2-- 2---------- 2--|------------ 2-------------- 2--|
E|---------------- 0-- 3----------| 0---- 3-------- 0---- 3--------|
Classical Guitar Tablature : http://classicalguitartablature.blogspot.com/
E|--------------------------------|--------------------------------|
B|--------------------------------|--------------------------------|
G|--------------------------------|--------------------------------|
D|--------------------------------|--------------------------------|
A|---------- 2-------- 6---- 9----|---- 6---- 9-------- 6---- 9----|
E| 0---- 3-------- 7--------------| 7-------------- 7--------------|
Classical Guitar Tablature : http://classicalguitartablature.blogspot.com/
E|-------------- 0----------------| 7-- 7---- 7-- 8---- 7-- 7---- 8|
B|---------------- 0------------ 8| 8---- 8------ 8---- 8-- 8---- 8|
G|---------------- 0---------- 9--| 9-- 9---- 9-- 9---- 9-------- 9|
D|---------------- 2-------- 9----|--------------------------------|
A|---- 6------ 9---- 2------------|--------------------------------|
E| 7---------------- 0------------| 0------ 0-- 0-- 0---- 0---- 0 0|
Classical Guitar Tablature : http://classicalguitartablature.blogspot.com/
E|---- 7--------------------------|-------------- 7-------------- 7|
B|---- 8-- 8----10----10------ 710|----10----10--10----10--10----10|
G|---- 9-------- 8---- 8---- 8-- 8|---- 8---- 8-- 8---- 8-- 8---- 8|
D|-------------- 9---- 9-- 9------| 9-- 9---- 9-------- 9---- 9----|
A|--------------------------------|--------------------------------|
E|------ 0------ 7------ 7--------| 7------ 7-- 7 7------ 7---- 7 7|
Classical Guitar Tablature : http://classicalguitartablature.blogspot.com/
E|--------------------------------| 7-- 7---- 7-- 8---- 7-- 7---- 8|
B|----10---- 7-- 8---- 8------ 8--| 8---- 8------ 8---- 8-- 8---- 8|
G|---- 8---- 8-- 9---- 9---- 9----| 9-- 9---- 9-- 9---- 9-------- 9|
D|---- 9---- 9-- 9---- 9-- 9------|--------------------------------|
A|--------------------------------|--------------------------------|
E|------ 7------ 0------ 0--------| 0------ 0-- 0-- 0---- 0---- 0 0|
Classical Guitar Tablature : http://classicalguitartablature.blogspot.com/
E|---- 7--------------------------|-------------- 7-------------- 7|
B|---- 8-- 8----10----10------ 710|----10----10--10----10--10----10|
G|---- 9-------- 8---- 8---- 8-- 8|---- 8---- 8-- 8---- 8-- 8---- 8|
D|-------------- 9---- 9-- 9------| 9-- 9---- 9-------- 9---- 9----|
A|--------------------------------|--------------------------------|
E|------ 0------ 7------ 7--------| 7------ 7-- 7 7------ 7---- 7 7|
Classical Guitar Tablature : http://classicalguitartablature.blogspot.com/
E|------------------------------ 0|---- 2---- 0--------------------|
B|----10---- 7-- 8---- 8------ 8 1|---- 1---- 1---- 0--------------|
G|---- 8---- 8-- 9---- 9---- 9-- 2|---- 2---- 2---- 0------ 0---- 2|
D|---- 9---- 9-- 9---- 9-- 9------|---------------- 2-- 2----------|
A|------------------------------ 0|-------- 0-- 0---------------- 2|
E|------ 7------ 0------ 0--------|---------------- 0---- 0-- 0----|
Classical Guitar Tablature : http://classicalguitartablature.blogspot.com/
E|------------------------------ 0|---- 2---- 0--------------------|
B|------------------------------ 1|---- 1---- 1---- 0--------------|
G|---- 0------------------------ 2|---- 2---- 2---- 0------ 0---- 2|
D|-- 1------ 4---- 2--------------|---------------- 2-- 2----------|
A|---- 2------ 2-- 2---------- 2 0|-------- 0-- 0---------------- 2|
E|---------------- 0-- 3----------|---------------- 0---- 0-- 0----|
Classical Guitar Tablature : http://classicalguitartablature.blogspot.com/
E|------------------------------ 0|---- 2---- 0--------------------|
B|------------------------------ 1|---- 1---- 1---- 0--------------|
G|---- 0------------------------ 2|---- 2---- 2---- 0------ 0---- 2|
D|-- 1------ 4---- 2--------------|---------------- 2-- 2----------|
A|---- 2------ 2-- 2---------- 2 0|-------- 0-- 0---------------- 2|
E|---------------- 0-- 3----------|---------------- 0---- 0-- 0----|
Classical Guitar Tablature : http://classicalguitartablature.blogspot.com/
E|------------------------------ 0|---- 2---- 0--------------------|
B|------------------------------ 1|---- 1---- 1---- 0--------------|
G|---- 0------------------------ 2|---- 2---- 2---- 0------ 0------|
D|-- 1------ 4---- 2--------------|---------------- 2-- 2----------|
A|---- 2------ 2-- 2---------- 2 0|-------- 0-- 0------------------|
E|---------------- 0-- 3----------|---------------- 0---- 0-- 0----|
Classical Guitar Tablature : http://classicalguitartablature.blogspot.com/
E|--------------------------------|-------------------------- 2-- 0|
B|---- 4--------------------------|-------------------- 4---- 4-- 0|
G| 4-- 4--------------------------|-------------- 4---- 4---- 4-- 0|
D| 4-- 4--------------------------| 4---- 4---- 4-- 4-- 4----------|
A| 2---------- 2-- 2---------- 2--| 2---------- 2-- 2-------- 2----|
E|---- 2---------------- 2--------|------ 2-------------- 2--------|
Classical Guitar Tablature : http://classicalguitartablature.blogspot.com/
E|--------------------------------|--------------------------------|
B|-------------- 1---------- 1----| 0------------------------------|
G|-------------- 2---------- 2----| 0-------------- 2---------- 2--|
D|-------------- 2---------- 2----| 2-------------- 1---------- 1--|
A|---------- 2---- 0-------- 0----|------------ 2-- 2---------- 2--|
E| 0---- 3------------ 0----------| 0---- 3-------------- 2------ 0|
Classical Guitar Tablature : http://classicalguitartablature.blogspot.com/
E|------------------ 0------------|--------------------------------|
B| 0---------------- 0------------|--------------------------------|
G| 0---------------- 0------------|--------------------------------|
D| 2-------------- 2--------------|--------------------------------|
A|---------------- 2--------------|--------------------------------|
E|-------------- 0----------------|--------------------------------|
Classical Guitar Tablature : http://classicalguitartablature.blogspot.com/

0 ความคิดเห็น:

แสดงความคิดเห็น