To celebrate the anniversary, I am giving you (finally...) : iPhone LickByNeck !!!!!!

Hallelujah (BASIC)

Jeff Buckley's tune fingerstyle chord melody guitar BASIC arrangement played in the key of C.
Hallelujah - Jeff Buckley - BASIC ARRANGEMENT played in the key of C
Classical Guitar Tablature : http://classicalguitartablature.blogspot.com/
E|-------------- 0------ 3------ 5|-------- 5-------------- 5-- 3--|
B| 1------------------------------| 4---------------------- 4------|
G|--------------------------------|--------------------------------|
D| 2------------------------------|--------------------------------|
A| 0------------------------------|--------------------------------|
E|--------------------------------|--------------------------------|
Classical Guitar Tablature : http://classicalguitartablature.blogspot.com/
E| 0------ 0-------------- 0-- 3--| 5------ 5-------------- 5-- 3--|
B|--------------------------------| 4------------------ 4----------|
G| 2------------------------------|---------------- 2--------------|
D|--------------------------------|--------------------------------|
A|--------------------------------|--------------------------------|
E|--------------------------------|--------------------------------|
Classical Guitar Tablature : http://classicalguitartablature.blogspot.com/
Classical Guitar Tablature : http://classicalguitartablature.blogspot.com/
E| 0-------------------- 0---- 0--|--------------------------------|
B| 1-- 1------ 1------ 1----------|---- 1------ 1------ 1------ 1--|
G| 2 2------ 2------ 2-- 2--------|-- 2------ 2------ 2------ 2----|
D|---------------- 2--------------| 1------ 1---- 1-------- 1------|
A|--------------------------------|--------------------------------|
E|--------------------------------|--------------------------------|
Classical Guitar Tablature : http://classicalguitartablature.blogspot.com/
E|--------------------------------|-------------------------- 0 0--|
B|---- 1------ 1------ 1----------|-- 4 4---- 4 4---- 4 4------ 4--|
G|-- 2------ 2------ 2------ 2 0--|-- 2 2------ 2---- 2 2---- 2 2--|
D| 2------ 2------ 2------ 2---- 1|-------- 1------ 1------ 1------|
A|--------------------------------|--------------------------------|
E|--------------------------------|--------------------------------|
Classical Guitar Tablature : http://classicalguitartablature.blogspot.com/
E|--------------------------------|--------------------------------|
B|-- 1 1---- 1 1---- 1 1---- 1 1--|-- 1 1---- 1 1---- 1 1---- 1 1--|
G|-- 1 1---- 1 1---- 1 1---- 1 1--|---- 2---- 2------ 2 2----------|
D| 2------ 2 2 3-- 0------ 0------|-- 3 3---- 3 3---- 3 3---- 3 3--|
A|--------------------------------| 3------ 3------ 3------ 3------|
E|--------------------------------|--------------------------------|
Classical Guitar Tablature : http://classicalguitartablature.blogspot.com/
E|---------------------------- 3--|------ 3------------------------|
B|-- 1 1---- 1 1-------------- 0--|------ 1---------------- 1------|
G|-- 2 2------ 2-------------- 0--|---- 0---- 0-------- 0---- 0----|
D|-- 3 3---- 3 3------------------|-- 2-------------- 2-------- 2--|
A| 3------ 3------ 3--------------| 3---------- 2-- 0--------------|
E|--------------------------------|--------------------------------|
Classical Guitar Tablature : http://classicalguitartablature.blogspot.com/
E|------ 3------------------------|--------------------------------|
B|-------- 1------------ 1--------|--------------------------------|
G|---- 0-------------- 0---- 0-- 0|---- 0 0---- 0-- 2-- 2-- 2------|
D|-- 2------ 2------ 2-------- 2--|-- 2-------- 0---- 2-------- 2--|
A| 3---------- 2-- 0------------ 3|---------- 3 2-- 0-------- 0----|
E|--------------------------------|--------------------------------|
Classical Guitar Tablature : http://classicalguitartablature.blogspot.com/
E|--------------------------------|--------------------------------|
B|--------------------------------|--------------------------------|
G| 0-- 0-- 0-- 0-- 2-- 2-- 2-- 2--| 2-- 2-- 2-- 2---- 2 0-- 0------|
D|-- 2-------------- 2------ 2----|-- 3------ 3-------------- 0 3--|
A| 3------ 3 2---- 0------ 0------|--------------------------------|
E|--------------------------------| 1-------------- 1------ 3------|
Classical Guitar Tablature : http://classicalguitartablature.blogspot.com/
E|--------------------------------|--------------------------------|
B|---------- 1------------ 0------|------------------------ 0------|
G|------ 0------------ 0---- 0----| 0-- 0-- 0-- 0-- 2-- 2-- 0-- 0--|
D| 3-- 2------ 2---- 0-------- 0--|-- 2 2-- 2 2---- 3 3------ 0----|
A| 3------------------------------| 3------------------------------|
E|---------------- 3--------------|---------------- 1------ 3------|
Classical Guitar Tablature : http://classicalguitartablature.blogspot.com/
E|--------------------------------|--------------------------------|
B| 1-- 1-- 1-- 1-- 1-- 1-- 3------| 3-- 3 3---- 3-- 5-- 5 5-- 3----|
G| 2-- 2-- 2-- 2-- 2-- 2-- 2-- 2--| 0-- 0-- 0-- 0-- 4-- 4 4-- 4----|
D|-- 2-------------- 3 3---- 3----| 0 0 0-- 0-- 0-- 3 3 3 3-- 3----|
A| 0-------- 0--------------------|--------------------------------|
E|---------------- 1--------------| 3-------- 3---- 4---------- 4--|
Classical Guitar Tablature : http://classicalguitartablature.blogspot.com/
E|--------------------------------|--------------------------------|
B| 3 1------ 1-------- 1----------|--------------------------------|
G| 2---- 2-------------------- 0 2|-------- 2-- 2---------- 2-- 0--|
D| 2-- 2------ 2---- 2-- 2------ 3|---------- 3-------- 3---- 3----|
A| 0-------------- 0--------------|--------------------------------|
E|--------------------------------| 1-------------- 1--------------|
Classical Guitar Tablature : http://classicalguitartablature.blogspot.com/
E|--------------------------------|--------------------------------|
B|------------ 1------ 1----------|--------------------------------|
G|---------- 2---------------- 0 2|-------- 2-- 2---------- 2-- 0--|
D| 2------ 2-------- 2---- 2---- 3|---------- 3-------- 3---- 3----|
A| 0-------------- 0--------------|--------------------------------|
E|--------------------------------| 1-------------- 1--------------|
Classical Guitar Tablature : http://classicalguitartablature.blogspot.com/
E|--------------------------------|------ 3------------------------|
B|---- 1-------------- 0----------|------ 1---------------- 1------|
G|-- 0-- 0---------- 0-- 0---- 0--|---- 0---- 0-------- 0---- 0----|
D| 2-------- 3 2-- 0-------- 0----|-- 2-------------- 2-------- 2--|
A| 3------------------------------| 3---------- 2-- 0--------------|
E|---------------- 3--------------|--------------------------------|
Classical Guitar Tablature : http://classicalguitartablature.blogspot.com/
E|------ 3---------------------- 3|---- 3 3---- 3 5---- 5 5------ 3|
B|-------- 1------------ 1------ 1|---- 1 1---- 0-- 5-- 5 5------ 1|
G|---- 0-------------- 0---- 0-- 0|-- 0 0 0---- 0 5-- 5 5 5------ 0|
D|-- 2------ 2------ 2-------- 2--|---------------- 7--------------|
A| 3---------- 2-- 0------------ 3|---------- 3 2-- 0-------- 0-- 3|
E|--------------------------------|---------------------------- 7--|
Classical Guitar Tablature : http://classicalguitartablature.blogspot.com/
E|---- 3 3---- 3 5---- 5 5------ 5|---- 5 5---------- 5-- 3---- 1 1|
B|---- 1 1---- 0-- 5-- 5 5------ 8|---- 8-- 8-------- 8 8 0------ 1|
G|-- 0 0 0---- 0 5-- 5 5 5------ 5|---- 5 5---- 5---- 5---- 0------|
D|---------------- 7--------------|-- 7------ 7-------------- 0----|
A|---------- 3 2-- 0-------- 0----| 8------------ 8----------------|
E|---------------------------- 7--|------------------------ 3------|
Classical Guitar Tablature : http://classicalguitartablature.blogspot.com/
E|---- 0------------------------ 3|---- 3-- 3-- 3-- 5-- 5-- 7---- 8|
B|---- 1------------------ 1------| 1-- 1-- 1-- 1 6---- 6-- 8------|
G| 0-- 0---- 0-------- 2---- 2----| 0-- 0-- 0------ 5-- 5-- 7-- 7--|
D|------ 2---------- 2-------- 2--|-- 2------ 2------ 7------ 9----|
A| 3---------- 2-- 0--------------| 3-------------- 8------10------|
E|--------------------------------|--------------------------------|
Classical Guitar Tablature : http://classicalguitartablature.blogspot.com/
E|---- 8 8---- 8 8---- 8--10------|10--10--10--10----1212--12--10--|
B| 5-- 5------ 510--------10--10--|12------12--12----1212--12--12--|
G| 5-- 5 5---------- 9------ 9----|--12------12------1010--1010-- 9|
D|-- 7------ 7--------------------|--------------------------------|
A| 0------------ 8----------------|10------------11----------------|
E|--------------------------------|--------------------------------|
Classical Guitar Tablature : http://classicalguitartablature.blogspot.com/
E|10-- 8---------------- 0---- 3 5|------ 5---------------- 5------|
B|10--10----10---------- 1------ 6|------------------------ 6-- 8--|
G|-- 9-- 9---- 9------ 2 2-- 2-- 5|---- 5------ 5------ 5----------|
D|------------------ 2------------|-- 7------ 7------ 7------ 7----|
A| 0-------------- 0------------ 8|-------------- 8----------------|
E|--------------------------------|--------------------------------|
Classical Guitar Tablature : http://classicalguitartablature.blogspot.com/
E| 0------ 0------------ 0---- 3 5|------ 5---------------- 5------|
B| 1------ 1------------ 1------ 6|------------------------ 6-- 8--|
G| 2-- 2------ 2------ 2-------- 5|---- 5------ 5------ 5----------|
D|-- 2------ 2------ 2------ 2----|-- 7------ 7------ 7------ 7----|
A| 0-------------- 0------------ 8|-------------- 8----------------|
E|--------------------------------|--------------------------------|
Classical Guitar Tablature : http://classicalguitartablature.blogspot.com/
E| 0------ 0 1 0------------------|------ 3------------------------|
B| 1-------- 1-- 3------ 3--------|------ 1---------------- 1------|
G| 0-- 0---- 0 0------ 0---- 0----|---- 0---- 0-------- 0---- 0----|
D|-- 2-------------- 0-------- 0--|-- 2-------------- 2-------- 2--|
A| 3------------------------------| 3---------- 2-- 0--------------|
E|-------------- 3----------------|--------------------------------|
Classical Guitar Tablature : http://classicalguitartablature.blogspot.com/
E|------ 3------------------------|------ 3------------------------|
B|-------- 1------------ 1--------|------ 1---------------- 1------|
G|---- 0-------------- 0---- 0----|---- 0---- 0-------- 0---- 0----|
D|-- 2------ 2------ 2-------- 2--|-- 2-------------- 2-------- 2--|
A| 3---------- 2-- 0--------------| 3---------- 2-- 0--------------|
E|--------------------------------|--------------------------------|
Classical Guitar Tablature : http://classicalguitartablature.blogspot.com/
E|------ 3------------------------|--------------------------------|
B|-------- 1------------ 1--------|--------------------------------|
G|---- 0-------------- 0---- 0----| 0------------------------------|
D|-- 2------ 2------ 2-------- 2--| 2------------------------------|
A| 3---------- 2-- 0------------ 3|--------------------------------|
E|--------------------------------|--------------------------------|
Classical Guitar Tablature : http://classicalguitartablature.blogspot.com/

0 ความคิดเห็น:

แสดงความคิดเห็น