To celebrate the anniversary, I am giving you (finally...) : iPhone LickByNeck !!!!!!

Hello (BASIC)

Lionel Richie's tune fingerstyle chord melody guitar BASIC arrangement played in the key of Am.

Classical Guitar Tablature : http://classicalguitartablature.blogspot.com/
Hello - Lionel Richie - BASIC ARRANGEMENT played in the key of Am
Classical Guitar Tablature : http://classicalguitartablature.blogspot.com/
E|--------------------------------|--------------------------------|
B|--------------------------------|-- 1-- 0------------------------|
G| 2---- 2---- 2------------ 0----|-- 2-- 2---- 2------ 0----------|
D| 2-- 2------ 2---- 2-- 2------ 3|---------- 3------ 0-- 0---- 3--|
A| 0------------------------------|--------------------------------|
E|---------------- 3------------ 1|---------------- 3------ 1------|
Classical Guitar Tablature : http://classicalguitartablature.blogspot.com/
E|--------------------------------| 0------------------------------|
B|-------- 0----------------------| 1------------------------------|
G|---- 2------ 2-------- 2--------| 2------ 2------ 2 2 2 2-- 2----|
D| 2------------ 2---- 2------ 2--|---- 3------ 3-------------- 2--|
A| 0------------------------------|--------------------------------|
E|---------------- 3--------------| 1-------------- 3------ 1------|
Classical Guitar Tablature : http://classicalguitartablature.blogspot.com/
Classical Guitar Tablature : http://classicalguitartablature.blogspot.com/
E|--------------------------------|--------------------------------|
B|---------- 0-- 0---- 1 1-- 3----| 1 3------ 3--------------------|
G|---- 2 2------------ 2 2-- 2----| 2------ 2-- 2---- 0------------|
D| 2------------------ 2 2-- 2----| 3---- 3------ 3-- 0 0---- 2-- 2|
A| 0------------------------------|--------------------------------|
E|---------------- 3--------------| 1-------------- 3------ 1------|
Classical Guitar Tablature : http://classicalguitartablature.blogspot.com/
E|--------------------------------|--------------------------------|
B|-------- 0-- 0---- 1 1------ 1--|-- 0 1-- 0----------------------|
G|-- 2 2------ 2---- 2 2---- 2----|-- 2 2-- 2 2-------- 0----------|
D|------------------ 2 2-- 2------|-- 3 3-- 3---- 3-- 0-- 0---- 2--|
A| 0------------------------------|--------------------------------|
E|---------------- 3--------------| 1-------------- 3------ 1------|
Classical Guitar Tablature : http://classicalguitartablature.blogspot.com/
E|--------------------------------|------------------------------ 0|
B|---------- 0-- 0---- 1 1-- 3-- 1|-- 3------ 3-------- 0------ 3 1|
G|---- 2 2------------ 2 2-- 2----|-------- 2-- 2---- 0------ 0-- 2|
D| 2------------------ 2 2-- 2----|------ 3------ 3 0------ 0------|
A| 0------------------------------|------------------------------ 0|
E|---------------- 3--------------| 1-------------- 3------ 1------|
Classical Guitar Tablature : http://classicalguitartablature.blogspot.com/
E|--------------------------------| 0------------ 0------------ 0--|
B|-------------------------- 3 1--| 1-- 3 3-- 1---- 2-- 2---- 3 2--|
G|------ 2---- 2-------- 2--------| 2 2-- 2-- 2------ 0-- 0--------|
D|-- 2------ 2------ 2------------|-- 3-- 3-- 3------ 2---- 2------|
A|--------------------------------|---------------- 0------------ 5|
E|-------------- 3-------------- 1|--------------------------------|
Classical Guitar Tablature : http://classicalguitartablature.blogspot.com/
E|------------------------------ 0|---- 1 0------------------------|
B| 6 6 6-- 5-- 3------ 3---- 1 3 1|---- 1 1-- 3-- 1---------- 1-- 3|
G| 5 5-- 5 5-------- 0-- 0------ 0|-- 0 0 0-- 0------ 0 2-- 2---- 2|
D| 7 7-- 7 7------ 0------ 0------| 2-------- 2---------- 3--------|
A|--------------------------------| 3---------------------------- 1|
E|---------------- 3--------------|---------------- 1--------------|
Classical Guitar Tablature : http://classicalguitartablature.blogspot.com/
E|--------------------------------|------------------------------ 0|
B|---- 1-- 1-------------- 0------|------ 0------ 1---- 1---- 3----|
G|-- 2------ 3-- 2-- 1-- 1---- 2--| 2 2------ 2-------- 0----------|
D| 3------------------ 0---- 0----| 2---------- 0---- 2------ 0----|
A|--------------------------------| 0------ 2------ 3------ 2---- 5|
E|---------------- 0--------------|--------------------------------|
Classical Guitar Tablature : http://classicalguitartablature.blogspot.com/
E|------------------------------ 0|---- 1 0------------------------|
B| 6 6 6-- 5-- 3------ 3---- 1 3 1|---- 1 1-- 3-- 1---------- 1-- 3|
G| 5 5-- 5 5-------- 0-- 0------ 0|-- 0 0 0-- 0------ 0 2-- 2---- 2|
D| 7 7-- 7 7------ 0------ 0------| 2-------- 2---------- 3--------|
A|--------------------------------| 3---------------------------- 1|
E|---------------- 3--------------|---------------- 1--------------|
Classical Guitar Tablature : http://classicalguitartablature.blogspot.com/
E|--------------------------------|--------------------------------|
B|---- 1-- 1---------------- 0----|--------------------------------|
G|-- 2------ 3-- 2-- 1---- 1-- 1--|------------------------------ 1|
D| 3-------------------- 0--------| 0------------------------ 4----|
A|--------------------------------|--------------------------------|
E|---------------- 0--------------|--------------------------------|
Classical Guitar Tablature : http://classicalguitartablature.blogspot.com/
E|--------------------------------|--------------------------------|
B|--------------------------------|-- 1-- 0------------------------|
G| 2---- 2---- 2------------ 0----|-- 2-- 2---- 2------ 0----------|
D| 2-- 2------ 2---- 2-- 2------ 3|---------- 3------ 0-- 0---- 3--|
A| 0------------------------------|--------------------------------|
E|---------------- 3------------ 1|---------------- 3------ 1------|
Classical Guitar Tablature : http://classicalguitartablature.blogspot.com/
E|--------------------------------| 0------------------------------|
B|-------- 0----------------------| 1------------------------------|
G|---- 2------ 2-------- 2--------| 2------ 2------ 2 2 2 2-- 2-- 2|
D| 2------------ 2---- 2------ 2--|---- 3------ 3-------------- 2 2|
A| 0------------------------------|--------------------------------|
E|---------------- 3--------------| 1-------------- 3------ 1------|
Classical Guitar Tablature : http://classicalguitartablature.blogspot.com/
E|-------- 0 1 0------------------|-- 0-------------------- 5---- 7|
B| 0 1-- 3-- 3---- 1 3 0------ 1 0|------ 3------ 3---- 0 5---- 5 5|
G|---------------- 0---- 0-- 0----| 2-- 2------ 2------ 0-- 5---- 5|
D|---------------- 0------ 0------| 3-------- 3------ 0---- 7------|
A| 0------------------------------|------------------------ 8------|
E|---------------- 3--------------| 1-------------- 3--------------|
Classical Guitar Tablature : http://classicalguitartablature.blogspot.com/
E|---- 8 5-- 7-- 3 5--------------| 0------------ 0-- 3----------12|
B|---- 5 5-- 5-- 5-- 5------ 4 4 5| 1---- 1------ 0 3-- 3------ 0--|
G|---- 5 5-- 5-- 5------ 5-- 4 4 5| 2-------- 2-- 0---- 0------ 0--|
D|--------------------------------|---- 3------ 3------------ 0----|
A| 0------------------------------|--------------------------------|
E|---------------- 3--------------| 1-------------- 3------ 1------|
Classical Guitar Tablature : http://classicalguitartablature.blogspot.com/
E|--1312--------10--1210------ 8 7| 8---------------------- 5---- 7|
B|------------13------------------|--1010 810---------- 8 5---- 5 5|
G| 910 9-------- 7-- 9 7------ 5 4| 9 9 9 9 9---- 9---- 7 5------ 5|
D|------------10------------------|--1010--10--10---- 9-- 7--------|
A| 0------------10----------------| 8--------------10------ 8------|
E|--------------------------------|--------------------------------|
Classical Guitar Tablature : http://classicalguitartablature.blogspot.com/
E|---- 8 5-- 7 3---- 5------ 5----|------------------------ 5------|
B|---- 5 5-- 5-- 5---- 5-- 5-- 5--|------ 1-------------- 5------ 5|
G|---- 5 5-- 5 5-------- 5------ 5|---- 2-- 2-- 2---- 6-------- 7--|
D|--------------------------------|-- 3------ 3-- 3 7--------------|
A| 0------------------------------|---------------- 0------------ 5|
E|---------------- 3--------------| 1------------------------------|
Classical Guitar Tablature : http://classicalguitartablature.blogspot.com/
E|------------------------------ 0|---- 1 0------------------------|
B| 6 6 6-- 5-- 3------ 3---- 1 3 1|---- 1 1-- 3-- 1---------- 1-- 3|
G| 5 5-- 5 5-------- 0-- 0------ 0|-- 0 0 0-- 0------ 0 2-- 2---- 2|
D| 7 7-- 7 7------ 0------ 0------| 2-------- 2---------- 3--------|
A|--------------------------------| 3---------------------------- 1|
E|---------------- 3--------------|---------------- 1--------------|
Classical Guitar Tablature : http://classicalguitartablature.blogspot.com/
E|--------------------------------|------------------------------ 0|
B|---- 1-- 1-------------- 0------|------ 0------ 1---- 1---- 3----|
G|-- 2------ 3-- 2-- 1-- 1---- 2--| 2 2------ 2-------- 0----------|
D| 3------------------ 0---- 0----| 2---------- 0---- 2------ 0----|
A|--------------------------------| 0------ 2------ 3------ 2---- 5|
E|---------------- 0--------------|--------------------------------|
Classical Guitar Tablature : http://classicalguitartablature.blogspot.com/
E|------------------------------ 0|---- 1 0------------------------|
B| 6 6 6-- 5-- 3------ 3---- 1 3 1|---- 1 1-- 3-- 1---------- 1-- 3|
G| 5 5-- 5 5-------- 0-- 0------ 0|-- 0 0 0-- 0------ 0 2-- 2---- 2|
D| 7 7-- 7 7------ 0------ 0------| 2-------- 2---------- 3--------|
A|--------------------------------| 3---------------------------- 1|
E|---------------- 3--------------|---------------- 1--------------|
Classical Guitar Tablature : http://classicalguitartablature.blogspot.com/
E|--------------------------------|--------------------------------|
B|---- 1-- 1---------------- 0----|--------------------------------|
G|-- 2------ 3-- 2-- 1---- 1-- 1--|------------------------------ 1|
D| 3-------------------- 0--------| 0------------------------ 4----|
A|--------------------------------|--------------------------------|
E|---------------- 0--------------|--------------------------------|
Classical Guitar Tablature : http://classicalguitartablature.blogspot.com/
E|--------------------------------|--------------------------------|
B|--------------------------------|-- 1-- 0------------------------|
G| 2---- 2---- 2------------ 0----|-- 2-- 2---- 2------ 0----------|
D| 2-- 2------ 2---- 2-- 2------ 3|---------- 3------ 0-- 0---- 3--|
A| 0------------------------------|--------------------------------|
E|---------------- 3------------ 1|---------------- 3------ 1------|
Classical Guitar Tablature : http://classicalguitartablature.blogspot.com/
E|--------------------------------| 0------------------------------|
B|-------- 0----------------------| 1------------------------------|
G|---- 2------ 2-------- 2--------| 2------ 2------ 2 2 2 2-- 2----|
D| 2------------ 2---- 2------ 2--|---- 3------ 3-------------- 2--|
A| 0------------------------------|--------------------------------|
E|---------------- 3--------------| 1-------------- 3------ 1------|
Classical Guitar Tablature : http://classicalguitartablature.blogspot.com/
E|--------------------------------|--------------------------------|
B|--------------------------------|--------------------------------|
G| 2------------------------------|--------------------------------|
D| 2------------------------------|--------------------------------|
A| 0------------------------------|--------------------------------|
E|--------------------------------|--------------------------------|
Classical Guitar Tablature : http://classicalguitartablature.blogspot.com/

0 ความคิดเห็น:

แสดงความคิดเห็น