To celebrate the anniversary, I am giving you (finally...) : iPhone LickByNeck !!!!!!

Just When I Needed You Most

Randy Van Warmer's tune fingerstyle chord melody guitar BASIC arrangement played in the key of A.

Classical Guitar Tablature : http://classicalguitartablature.blogspot.com/
Just When I Needed You Most - Randy Van Warmer - BASIC ARRANGEMENT played in the key of A
Classical Guitar Tablature : http://classicalguitartablature.blogspot.com/
E|------------ 9------------------|------------ 9------------------|
B|10----------------10------------|10----------------10------------|
G| 9------ 9-------------- 9------|--------12----------------------|
D|----11----------------------11--|----11----------------------11--|
A| 0------------------------------| 0------------------------------|
E|--------------------------------|--------------------------------|
Classical Guitar Tablature : http://classicalguitartablature.blogspot.com/
E|------------ 9------------------|------------ 9------------------|
B|10------------------10----------|10----------------10------------|
G|11------11--------------11------| 9------ 9------------ 9--------|
D|----11----------------------11--|----11----------------------11--|
A| 0------------------------------| 0------------------------------|
E|--------------------------------|--------------------------------|
Classical Guitar Tablature : http://classicalguitartablature.blogspot.com/
E|------------ 9------------------|------------ 9------------------|
B|10------------------10----------|10----------------10------------|
G| 9---- 9---------------- 9------|--------12----------------------|
D|----11--------------------------|----11----------------------11--|
A| 0------------------------------| 0------------------------------|
E|--------------------------------|--------------------------------|
Classical Guitar Tablature : http://classicalguitartablature.blogspot.com/
E|------------ 9------------------|------------ 9------------------|
B|10------------------10----------|10----------------10------------|
G|11------11--------------11------| 9------ 9------------ 9--------|
D|----11----------------------11--|----11----------------------11--|
A| 0------------------------------| 0---------------------------- 0|
E|--------------------------------|--------------------------------|
Classical Guitar Tablature : http://classicalguitartablature.blogspot.com/
E|--------------------------------|--------------------------------|
B|---- 2-- 2 2-- 2---- 3-- 5------|---- 2-- 2-- 2 2---- 3-- 5------|
G|---- 2-- 2---- 2---- 2----------|---- 0-- 0-- 0 0---- 2-- 0------|
D| 2-- 2-- 2---- 2---- 2------ 2--|---- 2-- 2-- 2 2---- 4-- 5------|
A|---------------- 0--------------| 0-------------- 0---------- 0--|
E|--------------------------------|--------------------------------|
Classical Guitar Tablature : http://classicalguitartablature.blogspot.com/
E|--------------------------------|--------------------------------|
B|---- 2-- 2 2-- 2---- 3-- 5------|--------------------------------|
G|---- 2-- 2 2-- 2---- 2-- 4-- 2--|-------- 2------------ 2--------|
D|---- 4-- 4 4-- 4---- 4-- 4------|---- 3------ 3------ 3------ 3--|
A| 0-------------- 0------------ 0|---------------- 0--------------|
E|--------------------------------|--------------------------------|
Classical Guitar Tablature : http://classicalguitartablature.blogspot.com/
E| 2 2---- 2-- 4------ 5----------|--------------------------------|
B| 2-- 2-- 2-- 2-------------- 2--| 2-- 0--------------------------|
G| 2-- 2-- 2-- 2---------- 2------| 2------ 2-- 2---------- 2-- 2--|
D|--------------------------------| 2------------------ 2----------|
A| 5------------ 5----------------| 0-------------- 0--------------|
E|--------------------------------|--------------------------------|
Classical Guitar Tablature : http://classicalguitartablature.blogspot.com/
E|--------------------------------|--------------------------------|
B| 0-- 0-- 0-- 2------ 3------ 2--|-- 0----------------------------|
G| 2------ 2-- 2------ 2------ 2--|---------- 2---------- 2--------|
D| 0-- 0-- 0-- 0-------- 0--------|-------- 0---------- 0---- 2----|
A| 2-------------- 2--------------|------------------------------ 0|
E|------------------------------ 0|---------------- 0--------------|
Classical Guitar Tablature : http://classicalguitartablature.blogspot.com/
E|--------------------------------|--------------------------------|
B|---- 2-- 2 2-- 2---- 3-- 5------|---- 2-- 2-- 2 2---- 3-- 5------|
G|---- 2-- 2---- 2---- 2----------|---- 0-- 0-- 0 0---- 2-- 0------|
D| 2-- 2-- 2---- 2---- 2------ 2--|---- 2-- 2-- 2 2---- 4-- 5------|
A|---------------- 0--------------| 0-------------- 0---------- 0--|
E|--------------------------------|--------------------------------|
Classical Guitar Tablature : http://classicalguitartablature.blogspot.com/
E|---------------------------- 2--|--------------------------------|
B|---- 2-- 2-- 2 2----------------|-- 5 3------ 3------------------|
G|---- 2-- 2 2-- 2---- 2----------|-------- 2-------- 4 2------ 2--|
D|---- 4-- 4 4-- 4-------- 4------|------------------------ 2------|
A| 0-------------- 0--------------| 0-------------- 0--------------|
E|--------------------------------|--------------------------------|
Classical Guitar Tablature : http://classicalguitartablature.blogspot.com/
E| 5------------------------------|--------------------------------|
B| 7------------------------------|------------ 2---- 0------------|
G| 6------ 6-------------- 6------|------ 2------------ 2------ 2--|
D|---- 7------ 7------ 7------ 7--|-- 2-------------------- 2------|
A| 5-------------- 5------------ 0|-------------- 0----------------|
E|--------------------------------|--------------------------------|
Classical Guitar Tablature : http://classicalguitartablature.blogspot.com/
E|--------------------------------|--------------------------------|
B| 2-- 2-- 2-- 2---- 0------------|--------------------------------|
G| 2-- 2------ 1---------- 2-- 2--|-------- 2-- 2-------- 4--------|
D| 0-- 0-- 0-- 0------------------|---- 2------ 4------ 4------ 6--|
A|--------------------------------| 0---------- 2-------- 4--------|
E| 0-------------- 0--------------|--------------------------------|
Classical Guitar Tablature : http://classicalguitartablature.blogspot.com/
E| 5------------------------------|--------------------------------|
B| 7------------------------------|------------ 2---- 0------------|
G| 6------ 6-------------- 6------|------ 2------------ 2------ 2--|
D|---- 7------ 7------ 7------ 7--|-- 2-------------------- 2------|
A| 5-------------- 5------------ 0|-------------- 0----------------|
E|--------------------------------|--------------------------------|
Classical Guitar Tablature : http://classicalguitartablature.blogspot.com/
E|--------------------------------|--------------------------------|
B| 2-- 2-- 2-- 2---- 0------------|------------ 2------------------|
G| 2-- 2------ 1---------- 2-- 2--|-------- 2---------- 2------ 2--|
D| 0-- 0-- 0-- 0------------------|---- 2------------------ 2------|
A|--------------------------------| 0------------------------------|
E| 0-------------- 0--------------|--------------------------------|
Classical Guitar Tablature : http://classicalguitartablature.blogspot.com/
E|------------ 9------------------|------------ 9------------------|
B|10------------------10----------|10----------------10------------|
G| 9---- 9---------------- 9------|--------12----------------------|
D|----11--------------------------|----11----------------------11--|
A| 0------------------------------| 0------------------------------|
E|--------------------------------|--------------------------------|
Classical Guitar Tablature : http://classicalguitartablature.blogspot.com/
E|------------ 9------------------|------------ 9------------------|
B|10------------------10----------|10----------------10------------|
G|11------11--------------11------| 9------ 9------------ 9--------|
D|----11----------------------11--|----11----------------------11--|
A| 0------------------------------| 0------------------------------|
E|--------------------------------|--------------------------------|
Classical Guitar Tablature : http://classicalguitartablature.blogspot.com/
E|------------ 9------------------|------------ 9------------------|
B|10------------------10----------|10----------------10------------|
G| 9---- 9---------------- 9------|--------12----------------------|
D|----11--------------------------|----11----------------------11--|
A| 0------------------------------| 0------------------------------|
E|--------------------------------|--------------------------------|
Classical Guitar Tablature : http://classicalguitartablature.blogspot.com/
E|-------------- 9----------------|--------------------------------|
B|10----------------------10------|--------------------------10----|
G|11----------------------------11|--------------------------------|
D|----11--------------------------|----11------------------11------|
A| 0------------------------------|---------------------- 0--------|
E|--------------------------------|--------------------------------|
Classical Guitar Tablature : http://classicalguitartablature.blogspot.com/

0 ความคิดเห็น:

แสดงความคิดเห็น