To celebrate the anniversary, I am giving you (finally...) : iPhone LickByNeck !!!!!!

Love Hurts - Nazareth

Nazareth's tune fingerstyle chord melody guitar BASIC arrangement played in the key of G.

Classical Guitar Tablature : http://classicalguitartablature.blogspot.com/
Love Hurts - Nazareth - BASIC ARRANGEMENT played in the key of G
Classical Guitar Tablature : http://classicalguitartablature.blogspot.com/
E| 1-------- 3 1 0-------- 0------|------------------------------ 1|
B| 1------------ 1------ 1------ 3|---- 1 0---------------- 0---- 1|
G| 2------ 2---- 0-------------- 0|---------- 0-------- 0------ 0--|
D|---- 3------------ 2---------- 0|-------------- 0----------------|
A|---------------- 3--------------|--------------------------------|
E| 1---------------------------- 3|--------------------------------|
Classical Guitar Tablature : http://classicalguitartablature.blogspot.com/
E|------ 1-- 3-- 0------ 0--------|------------------------ 5------|
B|------ 1-- 1-- 1------ 1------ 3|---- 1 0------------------------|
G| 2 2------ 2-- 0------ 0------ 0|---- 0------ 0------------------|
D|------------------ 2------ 2-- 0|---- 0-------------- 0------ 0--|
A|-------------- 3----------------|--------------------------------|
E| 1---------------------------- 3|---------------- 3--------------|
Classical Guitar Tablature : http://classicalguitartablature.blogspot.com/
E| 3-------------------- 5--------| 3---------------------- 5------|
B| 0---- 0-------------- 0--------| 0------ 0----------------------|
G| 0---- 0------------------------| 0------ 0----------------------|
D|---- 0-------------- 0---- 0----|---- 2-------------- 2------ 2--|
A|--------------------------------|--------------------------------|
E| 3---------- 3-- 3--------------| 0---------- 0-- 0--------------|
Classical Guitar Tablature : http://classicalguitartablature.blogspot.com/
E|------------------------ 7------|-------------- 7---- 7-------- 7|
B| 8---------------------- 8------|10------10----10----10----10-- 3|
G| 5------ 5----------------------| 7------ 7 7-- 7---- 7---- 7-- 4|
D|---- 5-------------- 5------ 5--|---- 7-------------------- 7----|
A|--------------------------------|--------------------------------|
E| 8---------- 8-- 8--------------|10------------10-------------- 3|
Classical Guitar Tablature : http://classicalguitartablature.blogspot.com/
E| 5 3------------------ 5--------| 3---------------------- 5------|
B| 3 3------------------ 3--------| 0------ 0-------------- 0------|
G| 4 4----------------------------| 0------ 0----------------------|
D|------ 5---------- 5-------- 5--|---- 2-------------- 2------ 2--|
A|--------------------------------|--------------------------------|
E|---------- 3---- 3--------------| 0---------- 0-- 0--------------|
Classical Guitar Tablature : http://classicalguitartablature.blogspot.com/
E|---------------------- 7--------|--------------10---- 8----10 8--|
B| 8------ 8------------ 8--------|10----10------ 7---- 7---- 7 7--|
G| 5------ 5----------------------| 7---------- 7------ 7---- 7 7--|
D|---- 5-- 5-------- 5------ 5----|---- 7-------- 7----------------|
A|--------------------------------|--------------------------------|
E| 8---------- 8-- 8--------------|10------------10----------------|
Classical Guitar Tablature : http://classicalguitartablature.blogspot.com/
E| 7-------- 7-- 7---------- 7----|-------------- 7---------- 7----|
B| 8------ 8 8-- 7----10---- 710--| 8---- 8------ 7----10---- 710--|
G| 7------ 7 7-- 8---- 8---- 8 8--| 9---- 9-- 9-- 8---- 8---- 8 8--|
D|---- 9-------------- 7------ 7--|-- 9---------------- 9------ 9--|
A|10----------10------------------|--------------------------------|
E|-------------- 7----------------| 0---------- 0 7----------------|
Classical Guitar Tablature : http://classicalguitartablature.blogspot.com/
E| 3------------ 0---- 0-- 1 0----|---------------------- 0--------|
B| 1---- 1------ 1---- 1-- 1 1-- 3|------ 3-------------- 3--------|
G| 0------ 0---- 0---- 0-- 0 0-- 0|------ 0------------------------|
D|---- 2--------------------------|-- 4-------------- 4------ 4----|
A| 3-------- 3-- 3-------------- 5|------------ 5 3----------------|
E|--------------------------------|--------------------------------|
Classical Guitar Tablature : http://classicalguitartablature.blogspot.com/
E|--------------------------------| 1-------- 3 1-- 0------ 0------|
B| 3-- 1 0------------------------| 1------ 1 1 1 1-------- 1------|
G| 0-- 0-- 0-------------- 0------| 2------ 2-- 2 0----------------|
D|-------------------- 0---- 0----|---- 3------------ 2---------- 0|
A|--------------------------------|---------------- 3--------------|
E| 3---------- 3-- 3--------------| 1---------------------------- 3|
Classical Guitar Tablature : http://classicalguitartablature.blogspot.com/
E|--------------------------------| 1------ 3 1---------- 8--------|
B| 3-- 1 0------------------------| 1---- 1 1-- 1-- 5---- 5--------|
G| 0---------- 0---------- 0------| 2---- 2-------- 5--------------|
D|-------------------- 0------ 0--|---- 3-------------- 5------ 5--|
A|--------------------------------|--------------------------------|
E|---------------- 3--------------| 1-------------- 8--------------|
Classical Guitar Tablature : http://classicalguitartablature.blogspot.com/
E| 7-- 5 3------------------------| 0-- 0-- 2 2---- 3-------- 0----|
B| 3-- 3 3-------------------- 3--| 0-- 0-- 0 0---- 0---- 0-- 0----|
G| 4-- 4 4-------------------- 2--| 0-- 0-- 0 0---- 0------ 0------|
D|-------------------- 5------ 0--|-------------------- 0----------|
A|--------------------------------|--------------------------------|
E| 3---------- 3-- 3------ 2------| 0---------- 0-- 0--------------|
Classical Guitar Tablature : http://classicalguitartablature.blogspot.com/
E| 7---------------------------- 7|------------------------------ 7|
B| 7--------10-- 8-------------- 7|----------10-- 8-------------- 7|
G| 8---- 8-- 8---------- 9-- 9-- 8|-------- 8 8---------- 9------ 8|
D|---- 9---- 9------ 9------------|-- 9------ 9-------- 9------ 9--|
A|--------------------------------|--------------------------------|
E| 7-------- 7---- 0--------------| 7---------- 7-- 0--------------|
Classical Guitar Tablature : http://classicalguitartablature.blogspot.com/
E|--------------------------------| 5---- 5------ 5------ 7-- 5-- 9|
B|----------10-- 8----------------| 5---- 5------ 5------ 5-- 5-- 5|
G|-------- 8 8---------- 9--------| 6 6---------- 6-- 6------------|
D|-- 9------ 9-------- 9------ 9--|--------------------------------|
A|--------------------------------| 0---------- 0-- 0------------ 0|
E| 7---------- 7-- 0--------------|--------------------------------|
Classical Guitar Tablature : http://classicalguitartablature.blogspot.com/
E|------ 9-- 7-- 5------ 5-- 5----|12----12------ 9-- 9------ 9--10|
B|------ 5-- 5-- 5------ 5---- 5--|10------10----10--10------10-- 7|
G|---- 6-------- 6-- 6-------- 6--| 9---- 9------ 9-- 9------ 9-- 7|
D|--------------------------------|----11--------------------------|
A|---------------- 0--------------| 0---------- 0 0------ 0--------|
E|--------------------------------|--------------------------------|
Classical Guitar Tablature : http://classicalguitartablature.blogspot.com/
E|------------1010------ 8--------| 7-------- 7-- 7---------- 7----|
B|---------------- 7--------------| 8------ 8 8-- 7----10---- 710--|
G|------ 7-------- 7--------------| 7------ 7 7-- 8---- 8---- 8 8--|
D|-- 7-------------- 7------ 7----|---- 9-------------- 7------ 7--|
A|--------------------------------|10----------10------------------|
E|10-------------- 8--------------|-------------- 7----------------|
Classical Guitar Tablature : http://classicalguitartablature.blogspot.com/
E|-------------- 7---------- 7----| 3------------ 0---- 0-- 1 0----|
B| 8---- 8------ 7----10---- 710--| 1---- 1------ 1---- 1-- 1 1-- 3|
G| 9---- 9-- 9-- 8---- 8---- 8 8--| 0------ 0---- 0---- 0-- 0 0-- 0|
D|-- 9---------------- 9------ 9--|---- 2--------------------------|
A|--------------------------------| 3-------- 3-- 3-------------- 5|
E| 0---------- 0 7----------------|--------------------------------|
Classical Guitar Tablature : http://classicalguitartablature.blogspot.com/
E|---------------------- 0--------|--------------------------------|
B|------ 3-------------- 3--------| 3-- 1 0------------------------|
G|------ 0------------------------| 0-- 0-- 0-------------- 0------|
D|-- 4-------------- 4------ 4----|-------------------- 0---- 0----|
A|------------ 5 3----------------|--------------------------------|
E|--------------------------------| 3---------- 3-- 3--------------|
Classical Guitar Tablature : http://classicalguitartablature.blogspot.com/
E| 1-------- 3 1-- 0------ 0------|--------------------------------|
B| 1------ 1 1 1 1-------- 1------| 3-- 1 0------------------------|
G| 2------ 2-- 2 0----------------| 0---------- 0---------- 0------|
D|---- 3------------ 2---------- 0|-------------------- 0------ 0--|
A|---------------- 3--------------|--------------------------------|
E| 1---------------------------- 3|---------------- 3--------------|
Classical Guitar Tablature : http://classicalguitartablature.blogspot.com/
E| 1------ 3 1---------- 8--------| 7-- 5 3------------------------|
B| 1---- 1 1-- 1-- 5---- 5--------| 3---------- 3------------------|
G| 2---- 2-------- 5--------------| 4------------------------------|
D|---- 3-------------- 5------ 5--|---------------- 5--------------|
A|--------------------------------|--------------------------------|
E| 1-------------- 8------------ 3|--------------------------------|
Classical Guitar Tablature : http://classicalguitartablature.blogspot.com/

0 ความคิดเห็น:

แสดงความคิดเห็น