To celebrate the anniversary, I am giving you (finally...) : iPhone LickByNeck !!!!!!

Love Of My Life - Queen

Queen's tune fingerstyle chord melody guitar BASIC arrangement played in the key of C.

Love Of My Life - Queen - BASIC ARRANGEMENT played in the key of C
Classical Guitar Tablature : http://classicalguitartablature.blogspot.com/
E|--------------------------------|--------------------------------|
B| 5------ 6------ 5-- 6-- 6------|11------10---- 8-------- 6-- 8--|
G|---- 5------ 5-- 5---------- 5--| 9------10------ 5-- 5-- 5-- 5--|
D| 8------ 7------ 8------ 7------|----10------10-- 8------ 7-- 7--|
A|--------------------------------|10------ 8------ 7------ 5------|
E|--------------------------------|--------------------------------|
Classical Guitar Tablature : http://classicalguitartablature.blogspot.com/
E|------ 0-------- 0--------------| 5------ 6------ 5------ 6------|
B|---- 1---- 1--------------------| 6-- 6-- 6-- 6-- 6-- 6-- 6-- 6--|
G|---- 0------ 0------------------| 8------ 7------ 8------ 7------|
D|-- 2---------- 2----------------|--------------------------------|
A| 3------------------------------|--------------------------------|
E|--------------------------------|--------------------------------|
Classical Guitar Tablature : http://classicalguitartablature.blogspot.com/
Classical Guitar Tablature : http://classicalguitartablature.blogspot.com/
E|10------ 8-- 8------13-- 8------|--------------------------------|
B|11--------------11------10------|---- 6-- 8-- 6------ 6-- 8-- 6--|
G|10--10----------12------10--10--| 7-------------- 5--------------|
D| 8------ 7----------------------| 8-------------- 7--------------|
A|----------------10------ 8------|---------------- 0--------------|
E|--------------------------------| 6------------------------------|
Classical Guitar Tablature : http://classicalguitartablature.blogspot.com/
E|---------------------- 3--------|------------ 3------------------|
B|---------------- 0------ 0------| 1-- 0-- 1-------------- 1-- 0--|
G| 0------ 2------ 0--------------| 0------------------ 0----------|
D|---- 0------ 0------ 0------ 0--| 2-------------- 2--------------|
A|------------------------------ 3|------------------------------ 0|
E| 3------ 3------ 3------ 3------|--------------------------------|
Classical Guitar Tablature : http://classicalguitartablature.blogspot.com/
E|--------------------------------|---------- 5--------------------|
B| 0-------------- 0--------------| 6-- 5 6-------------- 6--------|
G| 2-- 2------ 2------ 2------ 2--| 5---------------- 5------------|
D| 2------ 2-------------- 2---- 7|-------------- 7---------- 7----|
A|------------------------------ 5|--------------------------------|
E|--------------------------------|--------------------------------|
Classical Guitar Tablature : http://classicalguitartablature.blogspot.com/
E|-------- 3------ 3--------------| 0---------- 5---- 3-------- 5--|
B|-------- 1------ 0------ 6------| 1-- 3 1---- 3---- 3-------- 3--|
G| 0------ 2------ 0------ 4------| 0-- 0-- 0---- 3---- 3----------|
D|---- 0------ 3------ 0------ 3--|---- 2-- 2-------------- 3------|
A|-------- 0------ 2------ 5------| 3-------------- 3--------------|
E| 3------------------------------|--------------------------------|
Classical Guitar Tablature : http://classicalguitartablature.blogspot.com/
E| 6------------------------------|---------------- 0---------- 0--|
B| 6---------- 6---------- 6-- 5--| 6---- 6-------- 1--------------|
G| 5------ 5---------- 5----------| 7------ 7-- 7-- 2------ 2---- 3|
D|---- 7---------- 7--------------|---- 7-------------- 2----------|
A| 8------------------------------| 5-------------- 0--------------|
E|--------------------------------|--------------------------------|
Classical Guitar Tablature : http://classicalguitartablature.blogspot.com/
E| 1 0----------------------------|------------------------ 5-- 3--|
B| 3---- 3---- 3------ 1----------|---------------- 6------ 3-- 3--|
G|------------ 2------ 2-- 2-- 0--|---- 3-- 5------ 7------ 2------|
D|------------ 3------ 3----------| 3---------- 3------ 7----------|
A| 1------------------------------|---------------- 5--------------|
E|---------------- 1--------------| 6------ 5-------------- 3------|
Classical Guitar Tablature : http://classicalguitartablature.blogspot.com/
E|--------------------------------|------------ 5--10------ 8-- 8--|
B|-------- 3---- 3------ 6---- 6--|-------- 6------11--------------|
G|---- 3-- 3-- 5-------------- 5--|-------- 5------10--10----------|
D| 3------ 3---------- 3------ 7--|---- 7---------- 8------ 7------|
A|------ 3------------------------| 8------------------------------|
E|--------------------------------|--------------------------------|
Classical Guitar Tablature : http://classicalguitartablature.blogspot.com/
E|----13-- 8----------------------|--------------------------------|
B|11------10---------- 6-- 8-- 6--|---- 6-- 8-- 6------------------|
G|12------10--10-- 7--------------| 5-------------- 0------ 2------|
D|---------------- 8--------------| 7------------------ 0------ 0--|
A|10------ 8----------------------| 0------------------------------|
E|---------------- 6--------------|---------------- 3--------------|
Classical Guitar Tablature : http://classicalguitartablature.blogspot.com/
E|-------------- 3----------------|------------ 3------------------|
B|-- 0---------- 0----------------| 1-- 0-- 1-------------- 1-- 0--|
G|-- 0----------------------------| 0------------------ 0----------|
D|-------- 0---------- 0----------| 2-------------- 2--------------|
A|------------------------------ 3|------------------------------ 0|
E|--------------------------------|--------------------------------|
Classical Guitar Tablature : http://classicalguitartablature.blogspot.com/
E|--------------------------------|---------- 5--------------------|
B| 0-------------- 0--------------| 6-- 5 6-------------- 6--------|
G| 2-- 2------ 2------ 2------ 2--| 5---------------- 5------------|
D| 2------ 2-------------- 2---- 7|-------------- 7---------- 7----|
A|------------------------------ 5|--------------------------------|
E|--------------------------------|--------------------------------|
Classical Guitar Tablature : http://classicalguitartablature.blogspot.com/
E|-------- 3------ 3--------------| 0---------- 5---- 3-------- 5--|
B|-------- 1------ 0------ 6------| 1-- 3 1---- 3---- 3-------- 3--|
G| 0------ 2------ 0------ 4------| 0-- 0-- 0---- 3---- 3----------|
D|---- 0------ 3------ 0------ 3--|---- 2-- 2-------------- 3------|
A|-------- 0------ 2------ 5------| 3-------------- 3--------------|
E| 3------------------------------|--------------------------------|
Classical Guitar Tablature : http://classicalguitartablature.blogspot.com/
E| 6------------------------------|---------------- 0---------- 0--|
B| 6---------- 6---------- 6-- 5--| 6---- 6-------- 1--------------|
G| 5------ 5---------- 5----------| 7------ 7-- 7-- 2------ 2---- 3|
D|---- 7---------- 7--------------|---- 7-------------- 2----------|
A| 8------------------------------| 5-------------- 0--------------|
E|--------------------------------|--------------------------------|
Classical Guitar Tablature : http://classicalguitartablature.blogspot.com/
E| 1 0----------------------------|------------------------ 5-- 3--|
B| 3---- 3---- 3------ 1----------|---------------- 6------ 3-- 3--|
G|------------ 2------ 2-- 2-- 0--|---- 3-- 5------ 7------ 2------|
D|------------ 3------ 3----------| 3---------- 3------ 7----------|
A| 1------------------------------|---------------- 5--------------|
E|---------------- 1--------------| 6------ 5-------------- 3------|
Classical Guitar Tablature : http://classicalguitartablature.blogspot.com/
E|--------------------------------|---------- 8--------------------|
B|-------- 3---- 3------ 6--------|------10------ 5-------- 6------|
G|---- 3-- 3-- 5--------------10--|------10-------- 5-- 5-- 5-- 5--|
D| 3------ 3---------- 3----------|--10---------- 8-------- 7------|
A|------ 3---------------------- 8|--------------------------------|
E|--------------------------------|--------------------------------|
Classical Guitar Tablature : http://classicalguitartablature.blogspot.com/
E|---------------- 8------ 6-- 5--| 6--------------10------ 8----11|
B| 5-- 6-- 6------ 6-- 6-- 6------| 6------ 6------11------10----13|
G| 5------ 5-- 5-- 8------ 7------| 7------ 7----------10------10--|
D| 8------ 7----------------------|---------------- 8--------------|
A|--------------------------------|---- 5-- 6-- 8------------------|
E|--------------------------------|--------------------------------|
Classical Guitar Tablature : http://classicalguitartablature.blogspot.com/
E|------10------ 8------------ 8--|----13-- 8----------------------|
B|------11------ 6---- 6--11------|10------------------------------|
G|--10------10---- 8------ 9------|10------------------------------|
D|------ 8-------- 7--------------|--------------------------------|
A|------------------------10------| 8---------- 8-- 7-- 5----------|
E|--------------------------------|------------------------ 8-- 5--|
Classical Guitar Tablature : http://classicalguitartablature.blogspot.com/
E|--------------------------------|------ 5------------------------|
B| 6-- 6 6---- 6------ 6---- 6-- 5|---- 5 5---- 5------------------|
G| 7-- 7 7---- 7------ 7---- 7----| 5-- 5------ 5---- 5---------- 3|
D| 7-- 7-- 7-- 7---------- 7---- 7|-------------------------- 7-- 3|
A| 5-------------- 5--------------|--------------------------------|
E|--------------------------------| 5-------------- 5--------------|
Classical Guitar Tablature : http://classicalguitartablature.blogspot.com/
E|------------ 1------------------|--------------------------------|
B|-- 1---- 3----------------------|---------------- 1---- 2--------|
G|---------------------------- 2--|-------- 3------ 2---- 0--------|
D|-------------------- 3------ 3--|---- 3-- 3-- 3-- 3-- 3-- 2-- 2--|
A| 1-------------- 1--------------|------------------------ 0------|
E|--------------------------------| 1------ 1------ 1--------------|
Classical Guitar Tablature : http://classicalguitartablature.blogspot.com/
E|--------------------------------| 0-- 0-- 0-- 0---------------- 0|
B| 6-- 6-- 6-- 6------ 6------ 6--| 1-- 1-- 1-- 1------ 3---- 1-- 1|
G| 7-- 7-- 7-- 7------ 7------ 7--| 2-- 2-- 2-- 2------ 2---- 2-- 2|
D| 7-- 7-- 7-- 7------ 7------ 7--|-------------------- 2---- 2----|
A| 5-------------- 5--------------| 0-------------- 0--------------|
E|--------------------------------|------------------------------ 2|
Classical Guitar Tablature : http://classicalguitartablature.blogspot.com/
E|--------------------------------|------ 3---- 3---- 3------ 3----|
B|-- 3---- 1-- 4---- 3------------|------ 3---- 3------ 3---- 3----|
G|-- 2---- 2-- 1---- 2------ 5-- 3|------------ 3------ 3---- 3----|
D|---- 2-- 2-- 4---- 4-- 4--------| 5 5----------------------------|
A|--------------------------------|--------------------------------|
E|---------------- 2--------------| 3-------------- 3--------------|
Classical Guitar Tablature : http://classicalguitartablature.blogspot.com/
E|-------- 6------ 6------12------|13------------------------------|
B| 1------ 3------ 8------11------|13----------13------------------|
G| 0------ 3------ 5----------12--|--------14----------------------|
D|---- 2------ 3------ 5----------|----15----------15------15--14--|
A| 3------ 5------ 7------10------|--------------------------------|
E|--------------------------------|13------------------------------|
Classical Guitar Tablature : http://classicalguitartablature.blogspot.com/
E|---------------- 0---------- 0--| 1 0----------------------------|
B| 6---- 6-------- 1--------------| 3---- 3---- 3------ 1----------|
G| 7------ 7-- 7-- 2------ 2---- 3|------------ 2------ 2-- 2-- 0--|
D|---- 7-------------- 2----------|------------ 3------ 3----------|
A| 5-------------- 0--------------| 1------------------------------|
E|--------------------------------|---------------- 1--------------|
Classical Guitar Tablature : http://classicalguitartablature.blogspot.com/
E|------------------------ 5-- 3--|--------------------------------|
B|---------------- 6------ 3-- 3--|-------- 3---- 3------ 6---- 6--|
G|---- 3-- 5------ 7------ 2------|---- 3-- 3-- 5-------------- 5--|
D| 3---------- 3------ 7----------| 3------ 3---------- 3------ 7--|
A|---------------- 5--------------|------ 3------------------------|
E| 6------ 5-------------- 3------|--------------------------------|
Classical Guitar Tablature : http://classicalguitartablature.blogspot.com/
E|------------ 5------ 8-- 8------|--------------------------------|
B|-------- 6------10--10--10------| 6-- 5------ 6------------ 6----|
G|-------- 5------10--10--10------| 7------ 7------------ 7--------|
D|---- 7--------10------------10--| 7---------------- 7------------|
A| 8------------ 8-------------- 5|--------------------------------|
E|--------------------------------|--------------------------------|
Classical Guitar Tablature : http://classicalguitartablature.blogspot.com/
E|---- 0------------ 0------------|--------------------------------|
B|---- 1-- 3-- 1-------- 1--------|------------------ 3------------|
G|---- 2-- 2---------------- 2----|---- 2-------- 3-- 3------------|
D|-------- 2-------------------- 2|---------- 5---------------- 5--|
A|---- 0--------------------------|---------------------- 0--------|
E|--------------------------------|---------- 3---------------- 6--|
Classical Guitar Tablature : http://classicalguitartablature.blogspot.com/
E|--------------------------------|---- 1--------------------------|
B|------ 6------------------------|---- 1--------------------------|
G| 6---- 6------------------------|---- 2--------------------------|
D|-------------- 5----------------|-------- 3----------------------|
A|--------------------------------|--------------------------------|
E|--------------------------------|-- 1----------------------------|
Classical Guitar Tablature : http://classicalguitartablature.blogspot.com/

0 ความคิดเห็น:

แสดงความคิดเห็น