To celebrate the anniversary, I am giving you (finally...) : iPhone LickByNeck !!!!!!

Loving You (BASIC)

Minnie Riperton's tune fingerstyle chord melody guitar BASIC arrangement played in the key of E.

Classical Guitar Tablature : http://classicalguitartablature.blogspot.com/
Loving You - Minnie Riperton - BASIC ARRANGEMENT played in the key of E
Classical Guitar Tablature : http://classicalguitartablature.blogspot.com/
E| 7-- 4--------------------------|--------------------------------|
B| 5-- 5-- 5---- 7---- 4-- 4------| 5-- 2-- 5---- 0---- 0----------|
G| 6 6---- 6------ 4-- 4-- 4------| 2-- 2-- 2---- 1-- 1------------|
D|---------------- 4 4---- 4------|-- 2-------------- 1------------|
A| 0---- 0 0----------------------|--------------------------------|
E|---------------- 4---- 4 4------| 2---- 2 2------ 0------ 0------|
Classical Guitar Tablature : http://classicalguitartablature.blogspot.com/
E| 4------ 7----------------------|--------------------------------|
B|---- 5---------- 4------ 7------| 5-- 2-- 5------ 0---- 0--------|
G|-- 6---------------- 4-- 4------| 2-- 2-- 2------ 1-- 1----------|
D|------------------ 4---- 4------| 2 2---- 2---- 2-------- 2------|
A| 0---- 0 0----------------------|--------------------------------|
E|---------------- 4---- 4 4------| 2---- 2 2---- 0----------------|
Classical Guitar Tablature : http://classicalguitartablature.blogspot.com/
Classical Guitar Tablature : http://classicalguitartablature.blogspot.com/
E|---------- 4--------------------|--------------------------------|
B| 2---- 2------ 7------ 7-- 4-- 5|-- 4-- 5-- 2-- 4----------------|
G| 2-- 2-------------- 4-------- 2|-- 2-- 2-- 2------ 4------ 4----|
D|-- 2---- 2-------- 4---------- 2|-- 2-- 2-- 2---------- 6--------|
A| 0------------------------------|--------------------------------|
E|---------------- 4---- 4--------| 2------ 2------ 0--------------|
Classical Guitar Tablature : http://classicalguitartablature.blogspot.com/
E|---------- 4--------------------|--------------------------------|
B|---- 2-- 2---- 7---------- 4-- 5|-- 4-- 5-- 2 5 4-- 5 4----------|
G|---- 2 2------------ 4---- 4-- 2|------ 2------ 4-- 4-------- 4--|
D|------------------ 4-- 4-- 4----|------ 2-------------- 6-- 6----|
A| 0------ 0----------------------|--------------------------------|
E|---------------- 4------ 4------| 2------ 2------ 0------ 0------|
Classical Guitar Tablature : http://classicalguitartablature.blogspot.com/
E| 4---------- 4------------------| 9------------ 0----------------|
B| 5-------- 5-- 7------ 7---- 5--|1212-- 9---------- 2-- 0------ 0|
G| 6---- 6------------ 4----------| 9--------11-------- 1------ 1--|
D|---- 6------------ 4------ 4----|-------------------------- 2----|
A| 0------ 0-------------------- 9|------ 9------------------------|
E|---------------- 4------ 4------|---------------- 0------ 0------|
Classical Guitar Tablature : http://classicalguitartablature.blogspot.com/
E|---------- 4--------------------|--------------------------------|
B|---- 2-- 2---- 7---------- 4-- 5|-- 4-- 5-- 2 5 4-- 5 4----------|
G|---- 2 2------------ 4---- 4-- 2|------ 2------ 4-- 4-------- 4--|
D|------------------ 4-- 4-- 4----|------ 2-------------- 6-- 6----|
A| 0------ 0----------------------|--------------------------------|
E|---------------- 4------ 4------| 2------ 2------ 0------ 0------|
Classical Guitar Tablature : http://classicalguitartablature.blogspot.com/
E| 4 4 4 4 4----------------------|--------------------------------|
B| 2 2 2 2 2------ 7 7 7 7 7---- 5|-- 5 5-- 5 2-- 4----------------|
G| 2 2 2 2 2------ 4 4 4 4 4------| 2 2 2-- 2 2------ 4-------- 4--|
D|---------------- 4 4 4 4 4------| 2-- 2-- 2 2---------- 6-- 7----|
A| 0------------------------------|--------------------------------|
E|---------------- 4--------------| 2-------------- 0------ 0------|
Classical Guitar Tablature : http://classicalguitartablature.blogspot.com/
E|---------- 4--------------------| 9------------ 0----------------|
B|---- 2-- 2 2-- 7------ 7--------|--1210 9------ 0------ 0--------|
G|------ 2 2 2-------- 4------ 4 9|----------11-- 1---- 1----------|
D|-- 2---- 2 2------ 4------ 4----|------------------ 2------------|
A| 0------ 0-------------------- 9|--------------------------------|
E|---------------- 4------ 4------|-------------- 0----------------|
Classical Guitar Tablature : http://classicalguitartablature.blogspot.com/
E|------------------------------ 5|-- 4----------------------------|
B| 2-- 0 2-- 2-- 4-- 2-- 4------ 2|-- 2-- 5-- 2-- 0------------ 0--|
G| 2-------- 2------ 4-- 4-- 4----|------ 2---------- 3-- 4-- 4----|
D| 2---------------- 4-- 4--------|------ 2---------- 1------ 1----|
A|--------------------------------|-------- 2----------------------|
E| 2------ 2------ 4------ 4------| 2-------------- 0------ 0------|
Classical Guitar Tablature : http://classicalguitartablature.blogspot.com/
E|--------------------------------|-------------- 5---- 4----------|
B| 2-- 0 2-- 2-- 4-- 2-- 4------ 2|-- 2-- 4-- 4-- 2---- 2-- 5-- 7--|
G| 2-------- 2------ 4-- 4-- 4-- 2|-- 2-- 4-- 4------------ 6-- 6--|
D| 2---------------- 4-- 4------ 2|-- 2-- 4-- 4------ 2------ 7----|
A|--------------------------------|---------------- 0--------------|
E| 2------ 2------ 4------ 4------| 2------ 4-------------- 7------|
Classical Guitar Tablature : http://classicalguitartablature.blogspot.com/
E|---- 4------ 4------------------|--------------------------------|
B|---- 5---- 5-- 7------ 7-- 4-- 5|-- 4-- 5-- 2-- 4----------------|
G|-------- 6---------- 4-------- 2|-- 2-- 2-- 2------ 4------ 4----|
D|-- 6-- 6---------- 4---------- 2|-- 2-- 2-- 2---------- 6--------|
A| 0------------------------------|--------------------------------|
E|---------------- 4---- 4--------| 2------ 2------ 0--------------|
Classical Guitar Tablature : http://classicalguitartablature.blogspot.com/
E|---------- 4--------------------|--------------------------------|
B|---- 2-- 2---- 7---------- 4-- 5|-- 4-- 5-- 2 5 4-- 5 4----------|
G|---- 2 2------------ 4---- 4-- 2|------ 2------ 4-- 4-------- 4--|
D|------------------ 4-- 4-- 4----|------ 2-------------- 6-- 6----|
A| 0------ 0----------------------|--------------------------------|
E|---------------- 4------ 4------| 2------ 2------ 0------ 0------|
Classical Guitar Tablature : http://classicalguitartablature.blogspot.com/
E| 4---------- 4------------------| 9------------ 0----------------|
B| 5-------- 5-- 7------ 7---- 5--|1212-- 9---------- 2-- 0------ 0|
G| 6---- 6------------ 4----------| 9--------11-------- 1------ 1--|
D|---- 6------------ 4------ 4----|-------------------------- 2----|
A| 0------ 0-------------------- 9|------ 9------------------------|
E|---------------- 4------ 4------|---------------- 0------ 0------|
Classical Guitar Tablature : http://classicalguitartablature.blogspot.com/
E|---------- 4--------------------|--------------------------------|
B|---- 2-- 2---- 7---------- 4-- 5|-- 4-- 5-- 2 5 4-- 5 4----------|
G|---- 2 2------------ 4---- 4-- 2|------ 2------ 4-- 4-------- 4--|
D|------------------ 4-- 4-- 4----|------ 2-------------- 6-- 6----|
A| 0------ 0----------------------|--------------------------------|
E|---------------- 4------ 4------| 2------ 2------ 0------ 0------|
Classical Guitar Tablature : http://classicalguitartablature.blogspot.com/
E| 4 4 4 4 4----------------------|--------------------------------|
B| 2 2 2 2 2------ 7 7 7 7 7---- 5|-- 5 5-- 5 2-- 4----------------|
G| 2 2 2 2 2------ 4 4 4 4 4------| 2 2 2-- 2 2------ 4-------- 4--|
D|---------------- 4 4 4 4 4------| 2-- 2-- 2 2---------- 6-- 7----|
A| 0------------------------------|--------------------------------|
E|---------------- 4--------------| 2-------------- 0------ 0------|
Classical Guitar Tablature : http://classicalguitartablature.blogspot.com/
E|---------- 4--------------------| 9------------ 0----------------|
B|---- 2-- 2 2-- 7------ 7--------|--1210 9------ 0------ 0--------|
G|------ 2 2 2-------- 4------ 4 9|----------11-- 1---- 1----------|
D|-- 2---- 2 2------ 4------ 4----|------------------ 2------------|
A| 0------ 0-------------------- 9|--------------------------------|
E|---------------- 4------ 4------|-------------- 0----------------|
Classical Guitar Tablature : http://classicalguitartablature.blogspot.com/
E| 4 4 4 4 4----------------------|--------------------------------|
B| 2 2 2 2 2------ 7 7 7 7 7---- 5|-- 5 5-- 5 2-- 4----------------|
G| 2 2 2 2 2------ 4 4 4 4 4------| 2 2 2-- 2 2------ 4-------- 4--|
D|---------------- 4 4 4 4 4------| 2-- 2-- 2 2---------- 6-- 7----|
A| 0------------------------------|--------------------------------|
E|---------------- 4--------------| 2-------------- 0------ 0------|
Classical Guitar Tablature : http://classicalguitartablature.blogspot.com/
E|---------- 4--------------------| 9------------------------------|
B|---- 2-- 2 2-- 7------ 7--------|10--1210-- 9-- 7----------------|
G|------ 2 2 2-------- 4------ 4--| 9-------- 9--------------------|
D|-- 2---- 2 2------ 4------ 4----|---------- 7--------------------|
A| 0------ 0----------------------| 9------------------------------|
E|---------------- 4------ 4------|---------- 7--------------------|
Classical Guitar Tablature : http://classicalguitartablature.blogspot.com/
E|-------- 0----------------------|--------------------------------|
B|-------- 0----------------------|--------------------------------|
G|-------- 1---- 1----------------|--------------------------------|
D|------------ 4------------------|--------------------------------|
A|--------------------------------|--------------------------------|
E|-------- 0----------------------|--------------------------------|
Classical Guitar Tablature : http://classicalguitartablature.blogspot.com/

0 ความคิดเห็น:

แสดงความคิดเห็น