To celebrate the anniversary, I am giving you (finally...) : iPhone LickByNeck !!!!!!

Since I Don't Have You - Skyliners

Skyliners' tune fingerstyle chord melody guitar BASIC arrangement played in the key of A.

Classical Guitar Tablature : http://classicalguitartablature.blogspot.com/
Since I Don't Have You - Skyliners - BASIC ARRANGEMENT played in the key of A
Classical Guitar Tablature : http://classicalguitartablature.blogspot.com/
E|---- 5-------------- 5 2--------|---- 5-------------- 5 4--------|
B|---- 5 7------------ 2 2--------|---- 7 7------------ 3 3--------|
G|-------- 6-- 6------ 2 2---- 2--|-------- 7-- 7------ 4 4---- 4--|
D|-- 7------ 7------ 4------ 4----|-- 7------ 7------ 2------ 2----|
A| 0------------------------------| 5------------------------------|
E|-------------- 2----------------|-------------- 0----------------|
Classical Guitar Tablature : http://classicalguitartablature.blogspot.com/
E|---- 5-------------- 5 2--------|---- 5-------------- 5 4--------|
B|---- 5-- 7---------- 2 2--------|---- 7 7------------ 3 3--------|
G|-------- 6-- 6------ 2 2---- 2--|-------- 7-- 7------ 4 4---- 4--|
D|-- 7------ 7------ 4------ 4----|-- 7------ 7------ 2------ 2----|
A| 0------------------------------| 5------------------------------|
E|-------------- 2----------------|-------------- 0----------------|
Classical Guitar Tablature : http://classicalguitartablature.blogspot.com/
E| 0------------------------------|--------------------------------|
B| 2---- 2------------ 2-- 0------|-------- 0-------------- 0------|
G| 2-- 2-------------- 2------ 2--|---- 2---- 2-------- 1---- 1----|
D|-- 2------ 2------ 2------------|-- 3-------- 3---- 2-------- 2--|
A| 0---------- 0-- 0--------------| 5------------------------------|
E|--------------------------------|---------------- 0--------------|
Classical Guitar Tablature : http://classicalguitartablature.blogspot.com/
E| 0------------------------------|--------------------------------|
B| 2---- 2------------ 2-- 0------|-------- 0-------------- 0------|
G| 2-- 2-------------- 2------ 2--|---- 2---- 2-------- 1---- 1----|
D|-- 2------ 2------ 2------------|-- 3-------- 3---- 2-------- 2--|
A| 0---------- 0-- 0--------------| 5------------------------------|
E|--------------------------------|---------------- 0--------------|
Classical Guitar Tablature : http://classicalguitartablature.blogspot.com/
E| 5-- 4-- 2 4 2------------------|--------------------------------|
B| 2-- 2-- 2 2 2 5---- 2----------|------ 0---------------- 0------|
G| 2-- 2-- 2 2 2-- 2------ 4-- 2--|---- 2---- 2-------- 2---- 2----|
D|-- 2------------ 2 2------ 2----|-- 3-------- 3---- 3-------- 3--|
A| 0---------- 0-- 0--------------| 5------------ 5----------------|
E|--------------------------------|--------------------------------|
Classical Guitar Tablature : http://classicalguitartablature.blogspot.com/
E|------------------------------ 0|--------------------------------|
B| 0------ 0 2-- 0------ 0-- 2----| 0 2 0------------------ 0------|
G| 2-- 2-------- 2---- 2----------| 1 1 1---- 1-------- 1---- 1----|
D|-- 0-------------- 0-------- 0--|-- 2 2 2---------- 2-------- 2--|
A| 2---------- 2 2----------------|--------------------------------|
E|--------------------------------| 0---------- 0 0----------------|
Classical Guitar Tablature : http://classicalguitartablature.blogspot.com/
E| 0------------------------------|--------------------------------|
B| 2---- 2------------ 2-- 0------|-------- 0-------------- 0------|
G| 2-- 2-------------- 2------ 2--|---- 2---- 2-------- 1---- 1----|
D|-- 2------ 2------ 2------------|-- 3-------- 3---- 2-------- 2--|
A| 0---------- 0-- 0--------------| 5------------------------------|
E|--------------------------------|---------------- 0--------------|
Classical Guitar Tablature : http://classicalguitartablature.blogspot.com/
E| 0------------------------------|--------------------------------|
B| 2---- 2------------ 2-- 0------|-------- 0-------------- 0------|
G| 2-- 2-------------- 2------ 2--|---- 2---- 2-------- 1---- 1----|
D|-- 2------ 2------ 2------------|-- 3-------- 3---- 2-------- 2--|
A| 0---------- 0-- 0--------------| 5------------------------------|
E|--------------------------------|---------------- 0--------------|
Classical Guitar Tablature : http://classicalguitartablature.blogspot.com/
E| 5-- 4-- 2 4 2------------------|--------------------------------|
B| 2-- 2-- 2 2 2 5---- 2----------|------ 0---------------- 0------|
G| 2-- 2-- 2 2 2-- 2------ 4-- 2--|---- 2---- 2-------- 2---- 2----|
D|-- 2------------ 2 2------ 2----|-- 3-------- 3---- 3-------- 3--|
A| 0---------- 0-- 0--------------| 5------------ 5----------------|
E|--------------------------------|--------------------------------|
Classical Guitar Tablature : http://classicalguitartablature.blogspot.com/
E|--------------------------------|--------------------------------|
B| 0------ 0 2-- 0------ 0-- 2-- 2| 0---------------------- 0------|
G| 2-- 2-------- 1---- 1---- 1----| 2 2---- 2---------- 2---- 2----|
D|-- 0-------- 0---- 0-------- 0--|---- 2---- 2------ 2-------- 2--|
A| 2------------------------------| 0---------- 0-- 0--------------|
E|---------------- 0--------------|--------------------------------|
Classical Guitar Tablature : http://classicalguitartablature.blogspot.com/
E|------ 2------------------------|--------------------------------|
B|---- 3 3---------------- 2-- 3--|-------- 5 2---- 5 3 2----------|
G|---- 2------ 2------ 2----------|---- 2---------- 2 2 2---- 2----|
D|-- 4------ 4------ 4------ 4----|-- 2------------ 2 2 2-- 2-- 2--|
A| 2-------------- 2--------------| 0---------- 0-- 0--------------|
E|--------------------------------|--------------------------------|
Classical Guitar Tablature : http://classicalguitartablature.blogspot.com/
E|-------------- 5---- 4 2-- 4 2--|--------------------------------|
B|---------------- 3-- 3 3-- 3 3--| 5-- 3-- 2-------- 2------------|
G|---- 4-- 4-- 4-------- 2-- 2 2--| 2-- 2-- 2-- 4-- 2 2---- 2-- 2--|
D|-- 4 4-- 4-- 4---- 4------------| 2 2 2-- 2------ 2-- 2---- 2----|
A| 2------------ 2----------------| 0-------------- 0--------------|
E|--------------------------------|--------------------------------|
Classical Guitar Tablature : http://classicalguitartablature.blogspot.com/
E|-- 5------ 2 4 5-- 4 2----------|--------------------------------|
B|-- 3------ 3 3 3-- 3 3------ 3--|-- 5------ 2 3 5-- 3 2----------|
G|-- 2---- 2 2 2 2-- 2 2---- 2----|-- 2---- 2---- 2-- 2 2---- 2----|
D|---- 4------------------ 4------|-- 2 2-------- 2-- 2-- 2---- 2--|
A| 2-------------- 2--------------| 0------------ 0----------------|
E|--------------------------------|--------------------------------|
Classical Guitar Tablature : http://classicalguitartablature.blogspot.com/
E|--------------------------------|---------------------------- 012|
B| 0-- 0---- 2---- 2-- 0---- 2----| 0------------------------------|
G| 2-- 2---- 2---- 2-- 2---- 2----|---- 4------ 4------ 4-------- 9|
D|-- 0---- 0-- 0-- 0 0---- 0-- 0--|-- 6------ 6------ 6------ 6----|
A| 2-------------- 2--------------|-------- 5---- 4----------------|
E|--------------------------------| 0-------------------- 7--------|
Classical Guitar Tablature : http://classicalguitartablature.blogspot.com/
E|-------------------- 9----------|---------------------------- 012|
B|10----10------------1012----10--|------12--10------------10------|
G|---- 9---------------- 9--------|----10------10------10-------- 9|
D|--11------11------11------11----|-- 9-------------- 9------ 9----|
A| 0---------- 0-- 0--------------|--------------------------------|
E|--------------------------------|10-------------- 0--------------|
Classical Guitar Tablature : http://classicalguitartablature.blogspot.com/
E|-------------------- 9----------|---------------------------- 0--|
B|10----10------------1012----10--|------12--10------------10------|
G|---- 9---------------- 9--------|----10------10------10----------|
D|--11------11------11------11----|-- 9-------------- 9------ 9----|
A| 0---------- 0-- 0--------------|--------------------------------|
E|--------------------------------|10-------------- 0--------------|
Classical Guitar Tablature : http://classicalguitartablature.blogspot.com/
E| 5-- 4-- 2 4 2------------------|--------------------------------|
B| 2-- 2-- 2 2 2 5---- 2----------|------ 0---------------- 0------|
G| 2-- 2-- 2 2 2-- 2------ 4-- 2--|---- 2---- 2-------- 2---- 2----|
D|-- 2------------ 2 2------ 2----|-- 3-------- 3---- 3-------- 3--|
A| 0---------- 0-- 0--------------| 5------------ 5----------------|
E|--------------------------------|--------------------------------|
Classical Guitar Tablature : http://classicalguitartablature.blogspot.com/
E|--------------------------------|--------------------------------|
B| 0------ 0-------------- 2------| 0------ 0-------------- 2------|
G|---- 2-------------- 2------ 2--|---- 1-------------- 1---- 1----|
D|-- 0------ 0------ 0------ 0----|-- 0------ 0------ 0-------- 0--|
A| 2---------- 2-- 2--------------|--------------------------------|
E|--------------------------------| 0---------- 0-- 0--------------|
Classical Guitar Tablature : http://classicalguitartablature.blogspot.com/
E|---- 5-------------- 5 2--------|---- 5-------------- 5 4--------|
B|---- 5-- 7---------- 2 2--------|---- 7 7------------ 3 3--------|
G|-------- 6-- 6------ 2 2---- 2--|-------- 7-- 7------ 4 4---- 4--|
D|-- 7------ 7------ 4------ 4----|-- 7------ 7------ 2------ 2----|
A| 0------------------------------| 5------------------------------|
E|-------------- 2----------------|-------------- 0----------------|
Classical Guitar Tablature : http://classicalguitartablature.blogspot.com/
E|---- 5-------------- 5 2--------|---- 5-------------- 5 4--------|
B|---- 5-- 7---------- 2 2--------|---- 7 7------------ 3 3--------|
G|-------- 6-- 6------ 2 2---- 2--|-------- 7-- 7------ 4 4---- 4--|
D|-- 7------ 7------ 4------ 4----|-- 7------ 7------ 2------ 2----|
A| 0------------------------------| 5------------------------------|
E|-------------- 2----------------|-------------- 0----------------|
Classical Guitar Tablature : http://classicalguitartablature.blogspot.com/
E|--------------------------------|----------12--------------------|
B|------------ 9--12--10---- 9----|10------12----------------------|
G|---- 9--11-- 9-- 9-- 9---- 9----| 9----11------------------------|
D|----11--11--11--11--11----11----|11----11------------------------|
A| 0------------------------------|------ 0------------------------|
E|--------------------------------|--------------------------------|
Classical Guitar Tablature : http://classicalguitartablature.blogspot.com/

0 ความคิดเห็น:

แสดงความคิดเห็น