To celebrate the anniversary, I am giving you (finally...) : iPhone LickByNeck !!!!!!

Somewhere In Time-John Barry

John Barry's tune fingerstyle chord melody guitar BASIC arrangement played in the key of G.

Classical Guitar Tablature : http://classicalguitartablature.blogspot.com/
Somewhere In Time - John Barry - BASIC ARRANGEMENT played in the key of G
Classical Guitar Tablature : http://classicalguitartablature.blogspot.com/
E|--------------------------------|--------------------------------|
B|------ 0------------------------|-------- 0------------------ 0--|
G|--------------------------------|---------------- 0---- 2--------|
D|-- 0------------ 4------ 2-- 0--|---- 0--------------------------|
A|------------ 2------------------|------------ 2------------------|
E| 3------------------------------| 3------------------------------|
Classical Guitar Tablature : http://classicalguitartablature.blogspot.com/
E| 2------------------------------|------ 3------ 2----------------|
B| 0---------- 0------------------|-------- 0------------ 0---- 3--|
G| 0------ 0------ 0------ 0------|------------ 0------ 0----------|
D|---- 0------------ 0------------|---- 0--------------------------|
A|--------------------------------|---------------------------- 5--|
E| 3-------------------------- 2--| 0------------------------------|
Classical Guitar Tablature : http://classicalguitartablature.blogspot.com/
Classical Guitar Tablature : http://classicalguitartablature.blogspot.com/
E|--------------------------------|--------------------------------|
B|-- 0------------ 0--------------|--------------------------------|
G| 2---------- 2---------- 2------|-------- 2---------------- 0----|
D|-------- 2---------- 2----------|---- 2---- 2-- 2---- 4----------|
A| 3-------------------------- 2--| 0-------------- 0--------------|
E|--------------------------------|--------------------------------|
Classical Guitar Tablature : http://classicalguitartablature.blogspot.com/
E|--------------------------------|------------ 0-------------- 2--|
B|------------ 0------------ 0----|------------------------ 3------|
G| 2---- 2-------- 2---- 2--------| 2------ 2---------- 2----------|
D|---- 2------------ 2------------|---- 0---------- 4--------------|
A| 0------------------------------|---------------- 5--------------|
E|---------------- 3--------------| 2------------------------------|
Classical Guitar Tablature : http://classicalguitartablature.blogspot.com/
E|--------------------------------|------------------------------ 0|
B| 3------ 0----------------------|-------- 0---- 0---- 1---- 3-- 1|
G| 0------------------------------|-------------- 0---- 0---- 0-- 0|
D| 0-- 0---------- 4---- 2---- 0--|---- 0-------- 0------ 0-- 0----|
A|------------ 2------------------|------------ 2---------------- 3|
E| 3------------------------------| 3------------------------------|
Classical Guitar Tablature : http://classicalguitartablature.blogspot.com/
E|--------------------------------|------ 5------------------------|
B|---------- 1--------------------|------ 5-------- 8------ 7------|
G|-------- 0-------- 0------ 0----|---------------- 5-------- 5----|
D|---- 2-------- 2---------- 0----|-- 5-------- 5 5---- 5----------|
A|------------------------ 2------| 0------------ 0----------------|
E|--------------------------------|--------------------------------|
Classical Guitar Tablature : http://classicalguitartablature.blogspot.com/
E| 3------------------------------|-------------- 3---- 2---- 0----|
B| 0------ 0-- 3-- 3--------------|------ 0------ 0---- 0---- 0----|
G| 0------------------------ 0----|------ 0------------ 0---- 0----|
D|---- 0-------------- 0----------|-- 2------ 2--------------------|
A|---------------------- 5--------| 3------------------------------|
E| 0------------------------------|--------------------------------|
Classical Guitar Tablature : http://classicalguitartablature.blogspot.com/
E| 2---------------------------- 2|--------------------------------|
B| 4-- 4---------------- 4------ 5|---------- 2 2-- 2-- 4---- 5----|
G| 4------ 4------ 4---------- 4--| 3---- 3-- 3 3-- 3---- 3-- 3----|
D|------------ 4------ 4----------|-- 2------------ 2---- 2-- 2----|
A| 2------------------------------|--------------------------------|
E|--------------------------------| 2-------------- 2--------------|
Classical Guitar Tablature : http://classicalguitartablature.blogspot.com/
E|--------------------------------|---------------- 7--------------|
B| 7---------- 7------------------|----------------------10--------|
G| 9------ 9------ 9------ 9------|-------- 7---------------- 7----|
D|10--10--------------10------10--|----10------10------------------|
A|--------------------------------| 9------------------------------|
E|10------------------------------|--------------------------------|
Classical Guitar Tablature : http://classicalguitartablature.blogspot.com/
E| 7------------------------------|-------------------------- 7-- 5|
B| 0---------- 0-------------- 0--|-------------- 0---- 1---- 0----|
G| 0------ 0------ 0---------- 0--|-------- 0---- 0---- 0---- 0----|
D|---- 0-------------- 0----------|---- 2------ 2 2---- 2----------|
A|------------------------ 5------| 3------------------------------|
E| 0------------------------------|-------------------------- 7----|
Classical Guitar Tablature : http://classicalguitartablature.blogspot.com/
E|--------------------------------|-------------------------- 5-- 3|
B| 5---------- 5------------------|-------------------- 0----------|
G| 5------ 5---- 5----------------|-------- 2 2 2-- 2--------------|
D|---- 5-------------- 5------ 5--|---- 0--------------------------|
A| 0------------------------------|--------------------------------|
E|------------------------ 3---- 2|---------------- 2--------------|
Classical Guitar Tablature : http://classicalguitartablature.blogspot.com/
E|---------- 0-- 3---------- 0----|-------------- 5-------------- 2|
B| 0---- 0------ 0------ 0--------| 8---- 8------ 5---- 7---- 5-- 0|
G| 0 0-------------- 0------------| 5------------ 5-------------- 2|
D|--------------------------------|-- 5------ 7-- 5----------------|
A|-------------- 5----------------|------------------------------ 2|
E| 0------------------------------| 8------------ 8----------------|
Classical Guitar Tablature : http://classicalguitartablature.blogspot.com/
E|--------------------------------|--------------------------------|
B|------------ 0-------------- 0--|------------ 5------------------|
G|-------- 2------ 2------ 2------|------ 5------------------------|
D|---- 1-------------- 1----------|---- 5---------- 5---- 7---- 9--|
A|------------------------------ 5|--------------------------------|
E|--------------------------------|--------------------------------|
Classical Guitar Tablature : http://classicalguitartablature.blogspot.com/
E| 2------------------------------|------ 3------ 2----------------|
B| 0---------- 0------------------|-------- 0------------ 0---- 3--|
G| 0------ 0------ 0------ 0------|------------ 0------ 0----------|
D|---- 0------------ 0------------|---- 0--------------------------|
A|--------------------------------|---------------------------- 5--|
E| 3-------------------------- 2--| 0------------------------------|
Classical Guitar Tablature : http://classicalguitartablature.blogspot.com/
E|------------ 7------------------|------ 8------ 8------ 7--------|
B|10------------------------------|------ 5------ 5------ 5--------|
G| 9---- 9-------- 9--------------|-------------- 5-------------- 7|
D|----10--------------10----------|-- 5-------- 5---- 5-------- 5--|
A|--------------------------------| 0------------ 5--------------10|
E| 8---------------------- 8-- 7--|--------------------------------|
Classical Guitar Tablature : http://classicalguitartablature.blogspot.com/
E|10------ 7----------------------|------ 7------------------------|
B| 7-------------- 7--------------|-------------- 7----------------|
G|---- 7------------------ 9-- 7--|---- 7---------------- 9-- 7----|
D|------------ 9------------------|---------- 9--------------------|
A|--------------------------------|10------------------------------|
E|--------------------------------|------------------------------ 3|
Classical Guitar Tablature : http://classicalguitartablature.blogspot.com/
E|--------------------------------|--------------------------------|
B|-------- 0----------------------|-------- 0----------------------|
G|--------------------------------|--------------------------------|
D|---- 0---------- 4---- 2-- 0----|---- 0------------ 4-------- 2--|
A|---------- 2--------------------|------------ 2------------------|
E|--------------------------------| 3------------------------------|
Classical Guitar Tablature : http://classicalguitartablature.blogspot.com/
E|--------------------------------|--------------------------------|
B|--------------------------------|--------------------------------|
G|--------------------------------|--------------------------------|
D|-- 0----------------------------|--------------------------------|
A|--------------------------------|--------------------------------|
E|-------------------------- 3----|--------------------------------|
Classical Guitar Tablature : http://classicalguitartablature.blogspot.com/

0 ความคิดเห็น:

แสดงความคิดเห็น