To celebrate the anniversary, I am giving you (finally...) : iPhone LickByNeck !!!!!!

The Sound Of Music (BASIC)

Classic movie tune fingerstyle chord melody guitar BASIC arrangement played in the key of D.
The Sound Of Music - BASIC ARRANGEMENT played in the key of D
Classical Guitar Tablature : http://classicalguitartablature.blogspot.com/
E|---- 2 2-- 0 2------ 2 2-- 0 2--| 3---- 3---- 2-- 0---------- 0--|
B| 3-- 3 3-- 3 3---- 3 3 3 3 3 3--| 3-- 3---- 3---- 3------ 3------|
G| 2-- 2-- 2-- 2-- 2-- 2 2 2 2 2--|-- 2---- 2---- 2---- 2----------|
D|-- 4---------- 4----------------|--------------------------------|
A| 5------------------------------| 3-------------- 3--------------|
E|--------------------------------|--------------------------------|
Classical Guitar Tablature : http://classicalguitartablature.blogspot.com/
E| 2-- 5------------ 2-- 2 0 2----|-- 2 2 2-- 0 2-- 3--------------|
B|------------------ 3-- 3 3-- 3--| 3 3 3-- 3 3-------- 4------ 6--|
G|---------------- 2-- 2 2 2-- 2 2|-- 2-- 2 2-- 2---- 3-- 3-- 3 2--|
D|---------------- 4---------- 4--|---------------- 5------ 5------|
A|---------------- 5--------------|---------------- 6--------------|
E|--------------------------------|--------------------------------|
Classical Guitar Tablature : http://classicalguitartablature.blogspot.com/
Classical Guitar Tablature : http://classicalguitartablature.blogspot.com/
E|---------------- 5--------------| 0---- 0---- 2 0-------------- 0|
B| 4------ 6-- 3------ 6------ 4--|---------------- 3---- 3---- 3--|
G| 3-- 5--------------------------|---- 2---- 2-------- 2---- 2----|
D|--------------------------------|-- 2---- 2---- 2-- 2---- 2------|
A|--------------------------------|------ 0------------------------|
E|--------------------------------| 0-------------- 0------------ 0|
Classical Guitar Tablature : http://classicalguitartablature.blogspot.com/
E|---- 0---- 2 0------------------|---------- 0--------------------|
B|-------------- 3---- 3------ 3--| 3---- 3---- 3-- 1---- 1-- 1----|
G|-- 2---- 2-------- 2---- 2------|---- 2-------------- 0----------|
D| 2---- 2---------- 2---- 2------|-- 3------ 3------ 2------ 2----|
A|--------------------------------|--------------------------------|
E|---------------- 0--------------| 3------ 3------ 3------ 3------|
Classical Guitar Tablature : http://classicalguitartablature.blogspot.com/
E|------ 0------------------------|-------- 0------------------ 0--|
B| 2------ 2---- 3------ 3---- 3--| 3-- 2 3 3------ 0-- 2-- 3------|
G|---- 2---- 2------ 2------ 2----| 4-- 4 4---- 2-- 4------ 4------|
D|-- 2---------- 2-- 4---- 4------|-- 5------ 5-- 5-- 5-- 5-- 5-- 5|
A|--------------------------------| 0------ 0------ 0------ 0------|
E| 0------ 0---- 0-------- 0------|--------------------------------|
Classical Guitar Tablature : http://classicalguitartablature.blogspot.com/
E|------ 0---- 2-------------- 5--| 7 5---------------- 0----------|
B| 2-- 3-------- 3---- 5-- 7-- 8--| 7---- 8 7---- 7---- 3 2---- 0--|
G| 4-- 4-------- 4-------- 6-- 6--|-- 6---- 6-- 6-------- 2--------|
D|-- 5-- 5-- 5-- 5-- 5-- 5-- 5----|---------- 7------ 4------ 4 4--|
A| 0---- 0-------- 0------ 0------| 5------ 5------ 5------ 5------|
E|--------------------------------|--------------------------------|
Classical Guitar Tablature : http://classicalguitartablature.blogspot.com/
E|--------------------------------| 0---------------------- 0-- 2--|
B| 2---- 2---- 2-- 2-- 0------ 3--|---- 3 2 0---- 0---- 2-- 3-- 3--|
G| 2-- 2---- 2---- 2---- 2 1------| 2---------- 2------ 2 2---- 2--|
D|-- 3---- 3---- 3 3 3------------|-- 4------ 4------ 4------------|
A| 4-------------- 4--------------| 5-------------- 5--------------|
E|--------------------------------|--------------------------------|
Classical Guitar Tablature : http://classicalguitartablature.blogspot.com/
E| 3---- 3---- 3---------- 3 5----| 7 5---------------- 0----------|
B|------------ 3-------- 3--------| 7---- 8 7---- 7---- 3 2---- 0--|
G|---- 0---- 0------ 0------------|-- 6---- 6-- 6-------- 2--------|
D|-- 4---- 4------ 4--------------|---------- 7------ 4------ 4 4--|
A|-------------- 0----------------| 5------ 5------ 5------ 5------|
E| 0------------------------------|--------------------------------|
Classical Guitar Tablature : http://classicalguitartablature.blogspot.com/
E|--------------------------------|---- 0 2 3 5 7------------------|
B| 2---- 2---- 2-- 2-- 0------ 2--| 3------------ 2---- 2---- 2----|
G| 2-- 2---- 2---- 2---- 2 1------| 0---- 2 4 6 7 4-- 4------ 3----|
D|-- 3---- 3---- 3-- 3------------|-- 4-------------- 5---- 5------|
A| 4-------------- 4--------------|---------------- 0---- 0--------|
E|--------------------------------| 0------ 0----------------------|
Classical Guitar Tablature : http://classicalguitartablature.blogspot.com/
E|--------------------------------|---------------------- 2--------|
B| 3---- 3---------------- 3-- 3 2| 0-- 0 2-- 2-- 2 3 3-- 3-- 3-- 2|
G| 4-- 4---- 4---------- 2--------| 0-- 0 2---- 2 2 2 2------ 2----|
D|-- 5-------- 5------ 4----------| 0---- 0-- 2------ 4-- 4 4------|
A| 5-------------- 5--------------|------ 0-------------- 5--------|
E|--------------------------------| 3-------------- 2--------------|
Classical Guitar Tablature : http://classicalguitartablature.blogspot.com/
E|--------------------------------|---------------------- 5--------|
B| 0-- 0 2-- 2-- 2------ 3 3-- 3 2| 0-- 0 2-- 2-- 2-- 3-- 7-- 7----|
G| 0-- 0 2---- 2 2 4-- 4------ 2 2| 0-- 0 2---- 2 2-- 4-- 7---- 7--|
D| 0---- 0-- 2------ 5------ 4----| 0---- 0-- 2---- 4-- 4---- 7----|
A|------ 0-------- 5------ 5------|------ 0------ 2-------- 0------|
E| 3------------------------------| 3------------------------------|
Classical Guitar Tablature : http://classicalguitartablature.blogspot.com/
E| 0-- 0-------- 0----------------|---------------------- 2--------|
B| 0------ 5-- 5-------- 3---- 3 2| 0-- 0 2-- 2-- 2 3 3-- 3-- 3-- 2|
G| 1---------- 4-- 4-- 4---- 4----| 0-- 0 2---- 2 2 2 2------ 2----|
D|-- 0-- 0-- 2-- 2-- 5------ 4----| 0---- 0-- 2------ 4-- 4 4------|
A|---------------- 0--------------|------ 0-------------- 5--------|
E| 0------ 4-------------- 4------| 3-------------- 2--------------|
Classical Guitar Tablature : http://classicalguitartablature.blogspot.com/
E|--------------------------------| 2---------- 2------------------|
B| 0-- 0 2-- 2-- 2 3---- 3---- 3--| 3---- 3 3------ 2---- 2---- 2--|
G| 0-- 0 2---- 2 2---- 4------ 2--|---- 2---------- 2-- 2---- 2----|
D| 0---- 0-- 2------ 5------ 4-- 4|-- 4------ 4-- 4-- 2---- 2------|
A|------ 0-------- 5------ 5------| 2------------------------------|
E| 3------------------------------|---------------- 2--------------|
Classical Guitar Tablature : http://classicalguitartablature.blogspot.com/
E|------ 2---- 7-- 5---------- 0--|------------------------ 8------|
B| 3-- 5-- 910---- 3-- 2 0 2 3----| 6-- 5-- 5 6-- 8------ 8--------|
G| 2-- 2-- 7 7---- 4-- 4 4 4 4----| 7---- 7 7----------10----------|
D|-- 4---- 9 9------ 5 5 5 5 5----|-- 8---- 8-------- 8------------|
A| 2-------------- 0--------------|--------------------------------|
E|-------- 0----------------------| 8------ 8------ 8--------------|
Classical Guitar Tablature : http://classicalguitartablature.blogspot.com/
E|10-- 8------------ 3 1 0------ 0|---- 0-------- 0----------------|
B|10----1110----10-- 1 1 1-- 3-- 3|------------------ 3---- 0-- 6--|
G| 9 9-------- 9---- 2 2 2 2-- 2 5|-- 5---- 5---- 5---- 5----------|
D|----------10--------------------| 6---- 6-- 6--------------------|
A| 8------ 8----------------------|--------------------------------|
E|---------------- 1------ 1------| 0------------ 0----------------|
Classical Guitar Tablature : http://classicalguitartablature.blogspot.com/
E| 3-- 1 0------------------------|------------------------------ 8|
B| 1-- 1 1 3---- 3-------- 8--10--|11----11----11------11------1210|
G| 2 2---- 2-- 2---- 910-- 9-- 9--|10--10------10----10------10----|
D|---------- 3------10--10----10--|-- 8------ 8------ 8---- 9------|
A|---------------- 8---- 8--------|--------------------------------|
E| 1------------------------------|10------10---- 9------ 9------ 8|
Classical Guitar Tablature : http://classicalguitartablature.blogspot.com/
E|------ 8---------- 8 8 8---- 8--| 8---------------------------- 6|
B|--101110----10----101010----10--| 6------ 6-------------- 3-- 6--|
G|----------10------ 9 9 9--------| 7-- 7-------- 5------ 3--------|
D|--10----10------10--------10--10|-- 7-- 7-- 5------ 3------------|
A|--------------------------------|--------------------------------|
E|------ 8------ 8------ 8--------| 6------ 5------ 3--------------|
Classical Guitar Tablature : http://classicalguitartablature.blogspot.com/
E|--------------------------------|------------------------------ 8|
B| 5------------ 5----------------| 6------ 6--------------1112--10|
G| 7-- 7---- 7---- 6-- 6---- 6----| 5---- 5-- 5--------10------10--|
D|-- 8---- 8-- 8---- 8---- 8-- 8--|---- 7------ 7---- 8-------- 9--|
A|--------------------------------| 5------------------------------|
E| 8-------------- 8--------------|---------------- 9---------- 9 8|
Classical Guitar Tablature : http://classicalguitartablature.blogspot.com/
E|------ 8---------- 8 8 8---- 8--| 8---------------------------- 6|
B|--101110----10----101010----10--| 6------ 6-------------- 3-- 6--|
G|----------10------ 9 9 9--------| 7-- 7-------- 5------ 3--------|
D|--10----10------10--------10--10|-- 7-- 7-- 5------ 3------------|
A|--------------------------------|--------------------------------|
E|------ 8------ 8------ 8--------| 6------ 5------ 3--------------|
Classical Guitar Tablature : http://classicalguitartablature.blogspot.com/
E|--------------------------------|--------------------------------|
B| 5------------ 5----------------| 6------------------------------|
G| 7-- 7---- 7---- 6-- 6---- 6----| 5---- 5------ 3---------- 0----|
D|-- 8---- 8-- 8---- 8---- 8-- 8--| 5---- 5------ 3-------- 3------|
A|--------------------------------|--------------------------------|
E| 8-------------- 8--------------| 6---- 5------ 3-------- 1------|
Classical Guitar Tablature : http://classicalguitartablature.blogspot.com/

0 ความคิดเห็น:

แสดงความคิดเห็น