To celebrate the anniversary, I am giving you (finally...) : iPhone LickByNeck !!!!!!

The Summer Knows - Theme From Summer Of '42

Michel Lagrand's tune fingerstyle chord melody guitar BASIC arrangement played in the key of Cm.

Classical Guitar Tablature : http://classicalguitartablature.blogspot.com/
The Summer Knows (Theme from Summer of '42) - Michel Legrand - BASIC ARRANGEMENT played in the key of Cm
Classical Guitar Tablature : http://classicalguitartablature.blogspot.com/
E|------------------------ 3------|--------------------------------|
B| 3-- 4------ 3 4-------- 4------| 6-- 4 3------------------------|
G| 5------ 5 5------ 5-- 5--------|------------------ 5------------|
D| 5-------- 5--------------------|--------------------------------|
A| 3------------------------------|--------------------------------|
E|------------ 6-------- 4--------|--------------------------------|
Classical Guitar Tablature : http://classicalguitartablature.blogspot.com/
E|------------ 3------------------|--------------------------------|
B|---------- 4---- 4--------------|--------------------------------|
G| 4------ 4----------------------|--------------------------------|
D|------ 3------------------------|------------------------ 5---- 5|
A|--------------------------------|------------------------------ 3|
E|-- 3----------------------------|--------------------------------|
Classical Guitar Tablature : http://classicalguitartablature.blogspot.com/
E|--------------------------------|--------------------------------|
B| 3 4----------------------------| 3-- 4 6------------------------|
G| 5------ 5-------------- 5------| 4---------------------- 4------|
D|------------ 5------ 5------ 5 5|------------ 5------ 5------ 5--|
A|---------------- 3------------ 3|---------------- 3------------ 3|
E|--------------------------------|--------------------------------|
Classical Guitar Tablature : http://classicalguitartablature.blogspot.com/
E|--------------------------------|------ 3------------------------|
B| 3-- 4------------------------ 3|-- 4-------- 4---------- 4------|
G| 3------ 5-------------------- 5|---------------------------- 5--|
D| 5---------- 5------ 5---- 5-- 5|-------------------- 5----------|
A|---------------- 3--------------|--------------------------------|
E|------------------------ 6---- 5|---------------- 5--------------|
Classical Guitar Tablature : http://classicalguitartablature.blogspot.com/
E| 3-- 4-- 1-------------------- 3|-- 4-- 6------------------------|
B| 1---------- 1-------------- 1 1|-------- 5------ 5------ 5------|
G| 1-------------------- 1------ 1|-------- 5-- 5------ 5------ 5--|
D|-------------------- 3-------- 2|--------------------------------|
A|--------------------------------|--------------------------------|
E| 1-------------- 1------------ 1|--------------------------------|
Classical Guitar Tablature : http://classicalguitartablature.blogspot.com/
E|--------------------------------|--------------------------------|
B| 8-- 9---------- 8-- 9-- 6------| 4-- 6-- 3----------------------|
G| 8----10-------- 7--------------| 4---------- 4---------- 4------|
D|10----------10-- 6----------10--| 3------------------ 3------ 5--|
A| 8-------------- 8--------------|--------------------------------|
E|------------------------------ 3|---------------- 3--------------|
Classical Guitar Tablature : http://classicalguitartablature.blogspot.com/
E|---- 0--------------------------|-- 0-- 1------------------------|
B| 3------ 1-------------- 1------| 3---------------------- 3------|
G| 0---------- 0-------------- 0 2|------------ 2------ 2------ 0--|
D| 2------------------ 2----------|--------------------------------|
A| 3-------------- 3--------------| 3-------------- 3--------------|
E|--------------------------------|--------------------------------|
Classical Guitar Tablature : http://classicalguitartablature.blogspot.com/
E|---- 0--------------------------|-------- 3----------------------|
B| 3------ 1-------------- 1------| 5-- 6------------------ 5------|
G| 0---------- 0-------------- 0--| 3---------- 3-------------- 5 9|
D| 2---------------- 2------------| 5------------------ 5--------10|
A| 3-------------- 3--------------| 3------------------------------|
E|--------------------------------|---------------- 0--------------|
Classical Guitar Tablature : http://classicalguitartablature.blogspot.com/
E|--------------------------------|------ 8------------------ 7----|
B| 8--10------------------------ 9|--10-------------------- 7--10--|
G|--------10------------10------ 9|------------ 9---- 8---------- 4|
D|------------10------10----10-- 7|--------------------------------|
A| 8-------------- 8------------ 9|--------------------------------|
E|--------------------------------|-------------- 7-------------- 0|
Classical Guitar Tablature : http://classicalguitartablature.blogspot.com/
E| 4------------------------ 7----|-------------- 6-------------- 3|
B| 4---- 4--------------------10--| 9------------ 9------ 9--------|
G|------------ 4------ 9----------| 8------ 8---- 8------ 7--------|
D|---- 6----------10--------------|---- 9---- 9------ 6-- 6-- 6----|
A|--------------------------------|-------------- 8----------------|
E|---------------- 7--------------| 0-------------------- 6--------|
Classical Guitar Tablature : http://classicalguitartablature.blogspot.com/
E|-------------------------- 6----| 3------------ 5----------------|
B| 3------ 3---------------- 9 9--| 3------ 3---- 8---------- 8----|
G| 3---------- 3------ 8----------|------------ 3 7---- 7---- 6-- 6|
D|---- 5---------- 9--------------|---- 5------------ 5------ 5-- 7|
A| 6------------------------------| 6-------------------- 0--------|
E|---------------- 6--------------|---------------- 0--------------|
Classical Guitar Tablature : http://classicalguitartablature.blogspot.com/
E|--------------------------------|--------------------------------|
B| 8---- 7-- 5-- 8---- 6---- 5----|--------------------------------|
G|---- 6------ 7 5------ 5---- 7--| 1------ 1-------------- 1-- 0--|
D|-- 7-------------- 6------------|---- 3------ 3------ 3----------|
A| 5-------------- 5--------------|--------------------------------|
E|--------------------------------| 4-------------- 3--------------|
Classical Guitar Tablature : http://classicalguitartablature.blogspot.com/
E|---- 0--------------------------|--------------------------------|
B| 3------ 1-------------- 1---- 3|---- 5-- 6------------------ 3 6|
G| 0---------- 0-------------- 0--| 5---------- 5-------- 5------ 4|
D| 2------------------ 2----------| 6---------------- 6---------- 5|
A| 3-------------- 3--------------| 3-------------- 3------------ 3|
E|--------------------------------|--------------------------------|
Classical Guitar Tablature : http://classicalguitartablature.blogspot.com/
E|-- 3----------------------------| 1-- 3 4------------------------|
B|------ 5------------------------| 3---------- 3---------- 3------|
G|------------ 4---------- 4-- 5 1|-------------- 1---- 1------ 0--|
D|-------------- 5---- 5----------|------------------------------ 5|
A|---------------- 3--------------|--------------------------------|
E|------------------------------ 1|---------------- 1------------ 3|
Classical Guitar Tablature : http://classicalguitartablature.blogspot.com/
E|--------------------------------|--------------------------------|
B| 3-- 4--------------------------| 3-- 4--------------------------|
G| 5------ 5---- 5-------- 5------| 5------ 5-------------- 5-- 3--|
D|------------ 5------ 5------ 5--| 6---------- 6------ 6----------|
A|--------------------------------|--------------------------------|
E|---------------- 3------------ 3|---------------- 3--------------|
Classical Guitar Tablature : http://classicalguitartablature.blogspot.com/
E|---------- 3--------------------| 6 4-- 4---- 3-- 3-- 1----------|
B|------ 6-- 4-- 6---- 8-- 6 8-- 4|-- 4-- 4---- 4-- 0------ 4------|
G| 5---- 3-- 3-- 8---- 8-- 8 8-- 5|-- 5-- 5---- 5-- 0------ 4-- 0--|
D|---- 5 5------ 8---- 8-- 8 8----|------------------------ 3---- 5|
A| 3------------------------------|------------------------ 4---- 3|
E|-------------- 6-------------- 4|-------------- 3----------------|
Classical Guitar Tablature : http://classicalguitartablature.blogspot.com/
E|--------------------------------|--------------------------------|
B| 3 4----------------------------| 3-- 4 6------------------------|
G| 5------ 5-------------- 5------| 4---------------------- 4------|
D|------------ 5------ 5------ 5 5|------------ 5------ 5------ 5--|
A|---------------- 3------------ 3|---------------- 3------------ 3|
E|--------------------------------|--------------------------------|
Classical Guitar Tablature : http://classicalguitartablature.blogspot.com/
E|--------------------------------|------ 3------------------------|
B| 3-- 4------------------------ 3|-- 4-------- 4---------- 4------|
G| 3------ 5-------------------- 5|---------------------------- 5--|
D| 5---------- 5------ 5---- 5-- 5|-------------------- 5----------|
A|---------------- 3--------------|--------------------------------|
E|------------------------ 6---- 5|---------------- 5--------------|
Classical Guitar Tablature : http://classicalguitartablature.blogspot.com/
E| 3-- 4-- 1-------------------- 3|-- 4-- 6------------------------|
B| 1---------- 1-------------- 1 1|-------- 5------ 5------ 5------|
G| 1-------------------- 1------ 1|-------- 5-- 5------ 5------ 5--|
D|-------------------- 3-------- 2|--------------------------------|
A|--------------------------------|--------------------------------|
E| 1-------------- 1------------ 1|--------------------------------|
Classical Guitar Tablature : http://classicalguitartablature.blogspot.com/
E|--------------------------------|--------------------------------|
B| 8-- 9---------- 8-- 9-- 6------| 4-- 6-- 3----------------------|
G| 8----10-------- 7--------------| 4---------- 4---------- 4------|
D|10----------10-- 6----------10--| 3------------------ 3------ 5--|
A| 8-------------- 8--------------|--------------------------------|
E|------------------------------ 3|---------------- 3--------------|
Classical Guitar Tablature : http://classicalguitartablature.blogspot.com/
E|---- 0--------------------------|--------------------------------|
B| 3------ 1-------------- 1---- 3|---- 5-- 6------------------ 3 6|
G| 0---------- 0-------------- 0--| 5---------- 5-------- 5------ 4|
D| 2------------------ 2----------| 6---------------- 6---------- 5|
A| 3-------------- 3--------------| 3-------------- 3------------ 3|
E|--------------------------------|--------------------------------|
Classical Guitar Tablature : http://classicalguitartablature.blogspot.com/
E|-- 3----------------------------|-- 3---- 4----------------------|
B|------ 5------------------------| 6---------- 6------------------|
G|------------ 4---------- 4-- 5--| 5-------------- 5--------------|
D|-------------- 5---- 5-------- 3|--------------------------------|
A|---------------- 3--------------|--------------------------------|
E|------------------------------ 4|--------------------------------|
Classical Guitar Tablature : http://classicalguitartablature.blogspot.com/
E|--------------------------------|--------------------------------|
B|--------------------------------| 3-- 4--------------------------|
G|--------------------------------| 5------ 5---- 5-------- 5------|
D|---------------------- 5------ 5|------------ 5------ 5------ 5--|
A|--------------------------------|--------------------------------|
E|------------------------------ 3|---------------- 3------------ 3|
Classical Guitar Tablature : http://classicalguitartablature.blogspot.com/
E|--------------------------------|---------- 3--------------------|
B| 3-- 4--------------------------|------ 6-- 4-- 6---- 8-- 6 8-- 4|
G| 5------ 5-------------- 5-- 3--| 5---- 3-- 3-- 8---- 8-- 8 8-- 5|
D| 6---------- 6------ 6----------|---- 5 5------ 8---- 8-- 8 8----|
A|--------------------------------| 3------------------------------|
E|---------------- 3--------------|-------------- 6-------------- 4|
Classical Guitar Tablature : http://classicalguitartablature.blogspot.com/
E| 6 4-- 4---- 3-- 3-- 1----------|--------------------------------|
B|-- 4-- 4---- 4-- 0------ 4------|-- 3----------------------------|
G|-- 5-- 5---- 5-- 0------ 4-- 0--|-- 2----------------------------|
D|------------------------ 3------|-- 1----------------------------|
A|------------------------ 4------| 3------------------------------|
E|-------------- 3----------------|--------------------------------|
Classical Guitar Tablature : http://classicalguitartablature.blogspot.com/

0 ความคิดเห็น:

แสดงความคิดเห็น