To celebrate the anniversary, I am giving you (finally...) : iPhone LickByNeck !!!!!!

Theme From A Summer Place - Max Steiner

Max Steiner's tune fingerstyle chord melody guitar BASIC arrangement played in the key of E.
Classical Guitar Tablature : http://classicalguitartablature.blogspot.com/

Theme From A Summer Place - Max Steiner - BASIC ARRANGEMENT played in the key of E
Classical Guitar Tablature : http://classicalguitartablature.blogspot.com/
E|------------------------|------------------------|
B| 0-- 0 0-- 0---- 0 0----|------------------------|
G| 1-- 1-- 1 1---- 1-- 1 2|-- 2-- 2-- 2-- 2-- 2----|
D| 2-- 2-- 2 2---- 2-- 2 4|-- 4-- 4-- 4-- 4-- 4----|
A|------------------------|------------------------|
E| 0----------------------| 0----------------------|
Classical Guitar Tablature : http://classicalguitartablature.blogspot.com/
E|------------------------|------------------------|
B| 0-- 0-- 0-- 0-- 0-- 0--|------------------------|
G| 1-- 1-- 1-- 1-- 1-- 1--| 2-- 2-- 2 2-- 2---- 2--|
D| 2-- 2-- 2-- 2-- 2-- 2--| 4-- 4-- 4 4---- 4-- 4--|
A|------------------------|------------------------|
E| 0----------------------| 0----------------------|
Classical Guitar Tablature : http://classicalguitartablature.blogspot.com/
E|------------------------|------------------------|
B| 0----------------------|------ 2-- 5------ 4----|
G|-------- 1---------- 1--|------ 2-- 2------ 2----|
D|---- 2---------- 2------|-- 2------ 4-- 4--------|
A|------------ 4----------|------------ 2----------|
E| 0-------------------- 2|------------------------|
Classical Guitar Tablature : http://classicalguitartablature.blogspot.com/
E|------------------------|------------------------|
B| 0----------------------|------ 2-- 5------ 4----|
G|-------- 1---------- 1--|------ 2-- 2------ 2----|
D|---- 2---------- 2------|-- 2------ 4-- 4--------|
A|------------ 4----------|------------ 2----------|
E| 0-------------------- 2|------------------------|
Classical Guitar Tablature : http://classicalguitartablature.blogspot.com/
E| 4----------------------|------------------ 2----|
B| 5---------------- 4-- 2|-------------- 4--------|
G|-------- 4------ 6---- 2|-------- 2---- 2--------|
D|---- 6-------- 6--------|---- 2-------- 4--------|
A|---------- 4------------|------------ 2----------|
E| 0----------------------| 2----------------------|
Classical Guitar Tablature : http://classicalguitartablature.blogspot.com/
E| 4----------------------|------------------ 2----|
B| 5---------------- 4-- 2|-------------- 4--------|
G|-------- 4------ 6---- 2|-------- 2---- 2--------|
D|---- 6-------- 6--------|---- 2-------- 4--------|
A|---------- 4------------|------------ 2----------|
E| 0----------------------| 2----------------------|
Classical Guitar Tablature : http://classicalguitartablature.blogspot.com/
E|------------------------|------------------------|
B|---- 4-- 5-- 4----------| 2------ 2-- 5------ 4--|
G| 4-- 4-- 4-- 4-- 6-- 4--| 2------ 2-- 2----------|
D|------------------------|---- 2------ 4-- 4------|
A|------------ 4----------|------------ 2----------|
E| 0----------------------| 2----------------------|
Classical Guitar Tablature : http://classicalguitartablature.blogspot.com/
E|------------------------|------------------------|
B|---- 4-- 5-- 4----------| 2------ 2-- 5------ 4--|
G| 4-- 4-- 4-- 4-- 6-- 4--| 2------ 2-- 2----------|
D|------------------------|---- 2------ 4-- 4------|
A|------------ 4----------|------------ 2----------|
E| 0----------------------| 2----------------------|
Classical Guitar Tablature : http://classicalguitartablature.blogspot.com/
E| 4----------------------|------------------ 2----|
B| 5---------------- 4-- 2|-------------- 4--------|
G|-------- 4------ 6---- 2|-------- 2---- 2--------|
D|---- 6-------- 6--------|---- 2-------- 4--------|
A|---------- 4------------|------------ 2----------|
E| 0----------------------| 2----------------------|
Classical Guitar Tablature : http://classicalguitartablature.blogspot.com/
E| 4----------------------|------------------ 2----|
B| 5---------------- 4-- 2|-------------- 4------ 5|
G|-------- 4------ 6---- 2|-------- 2---- 2------ 4|
D|---- 6-------- 6--------|---- 2-------- 4------ 6|
A|------------ 4----------|------------ 2----------|
E| 0----------------------| 2----------------------|
Classical Guitar Tablature : http://classicalguitartablature.blogspot.com/
E|-------------------- 9--|12-- 9------------------|
B|-------------- 9--------|--------10-- 7------ 7--|
G|-- 4---- 6-- 9----------| 9-- 9-- 9-- 8-- 8------|
D|---------- 9------------|--------11-- 7----------|
A|------------------------| 9----------------------|
E| 0---------- 9----------|------------ 7----------|
Classical Guitar Tablature : http://classicalguitartablature.blogspot.com/
E|-------------------- 9--|12-- 9------------------|
B| 5-------------- 9------|--------10-- 7------ 7--|
G| 4-- 4-- 6-- 9----------| 9-- 9-- 9-- 8-- 8------|
D| 6---------- 9----------|--------11-- 7----------|
A|------------------------| 9----------------------|
E| 0---------- 9----------|------------ 7----------|
Classical Guitar Tablature : http://classicalguitartablature.blogspot.com/
E|------------------ 4----|------------------------|
B| 5-------------- 4------| 4-------- 2------------|
G| 6------ 6------ 4------| 4------ 4 2------ 2-- 4|
D|---- 6---------- 4------|-- 4------------ 2------|
A| 4----------------------|------------------------|
E|------------ 7----------| 5---------- 2-------- 4|
Classical Guitar Tablature : http://classicalguitartablature.blogspot.com/
E|------------------------|------------------------|
B|------------------ 5----| 0----------------------|
G|-------- 4---- 6--------|-------- 2-- 2------ 2--|
D|---- 4---- 4------------|---- 2---------- 4------|
A|---------- 4------------|------------ 0----------|
E|------------------------| 2----------------------|
Classical Guitar Tablature : http://classicalguitartablature.blogspot.com/
E|------------------------|------------ 4----------|
B|-------------------- 0--| 2----------------------|
G| 1------ 1-- 1-- 2------| 3------ 3---------- 3--|
D|---- 2------ 2----------|---- 2---------- 2------|
A| 2---------- 2----------|------------------------|
E|------------------------| 2---------- 2----------|
Classical Guitar Tablature : http://classicalguitartablature.blogspot.com/
E|------------------------|------------------ 9----|
B| 7----------------------|-------------- 7--------|
G|------ 8------------ 8--|---------- 8------------|
D|-- 7------------ 7------|---- 911----------------|
A|------------------------|------------------------|
E| 7---------- 7----------| 7-------- 7------------|
Classical Guitar Tablature : http://classicalguitartablature.blogspot.com/
E| 7----------------------|------------------------|
B| 5-- 4-- 5-- 4----------| 2------ 2-- 5------ 4--|
G| 4-- 4-- 4-- 4-- 6-- 4--| 2------ 2-- 2----------|
D|---- 6-- 6-- 6----------|---- 2------ 4-- 4------|
A|------------ 4----------|------------ 2----------|
E| 0----------------------| 2----------------------|
Classical Guitar Tablature : http://classicalguitartablature.blogspot.com/
E|------------------------|------------------------|
B|---- 4-- 5-- 4----------| 2------ 2-- 5------ 4--|
G| 4-- 4-- 4-- 4-- 6-- 4--| 2------ 2-- 2----------|
D|------------------------|---- 2------ 4-- 4------|
A|------------ 4----------|------------ 2----------|
E| 0----------------------| 2----------------------|
Classical Guitar Tablature : http://classicalguitartablature.blogspot.com/
E| 4----------------------|------------------ 2----|
B| 5---------------- 4-- 2|-------------- 4--------|
G|-------- 4------ 6---- 2|-------- 2---- 2--------|
D|---- 6-------- 6--------|---- 2-------- 4--------|
A|------------ 4----------|------------ 2----------|
E| 0----------------------| 2----------------------|
Classical Guitar Tablature : http://classicalguitartablature.blogspot.com/
E| 4----------------------|------------------ 2----|
B| 5---------------- 4-- 2|-------------- 4------ 5|
G|-------- 4------ 6---- 2|-------- 2---- 2------ 4|
D|---- 6-------- 6--------|---- 2-------- 4------ 6|
A|------------ 4----------|------------ 2----------|
E| 0----------------------| 2----------------------|
Classical Guitar Tablature : http://classicalguitartablature.blogspot.com/
E|-------------------- 9--|12-- 9------------------|
B|-------------- 9--------|--------10-- 7------ 7--|
G|-- 4---- 6-- 9----------| 9-- 9-- 9-- 8-- 8------|
D|---------- 9------------|--------11-- 7----------|
A|------------------------| 9----------------------|
E| 0---------- 9----------|------------ 7----------|
Classical Guitar Tablature : http://classicalguitartablature.blogspot.com/
E|-------------------- 9--|12-- 9------------------|
B| 5-------------- 9------|--------10-- 7------ 7--|
G| 4-- 4-- 6-- 9----------| 9-- 9-- 9-- 8-- 8------|
D| 6---------- 9----------|--------11-- 7----------|
A|------------------------| 9----------------------|
E| 0---------- 9----------|------------ 7----------|
Classical Guitar Tablature : http://classicalguitartablature.blogspot.com/
E|-------------------- 9--|12-- 9------------------|
B| 5-------------- 9------|--------10-- 7------ 7--|
G| 4-- 4-- 6-- 9----------| 9-- 9-- 9-- 8-- 8------|
D| 6---------- 9----------|--------11-- 7----------|
A|------------------------| 9----------------------|
E| 0---------- 9----------|------------ 7----------|
Classical Guitar Tablature : http://classicalguitartablature.blogspot.com/
E|-------------------- 9--|12---- 9---------- 9----|
B| 5-------------- 9------|------10----10--------10|
G| 4-- 4-- 6-- 9----------| 9---- 9---- 9---- 8----|
D| 6---------- 9----------|------------11----------|
A|------------------------| 9----------------------|
E| 0---------- 9----------|------------------ 7----|
Classical Guitar Tablature : http://classicalguitartablature.blogspot.com/
E|------------------------|------------------------|
B|-- 7-- 5----------------|------------------------|
G|------------ 6----------|------------------ 1----|
D|------------------ 7----|---------------- 2------|
A|------------------------|------------------------|
E|------------------------|-------------- 0--------|
Classical Guitar Tablature : http://classicalguitartablature.blogspot.com/

0 ความคิดเห็น:

แสดงความคิดเห็น