To celebrate the anniversary, I am giving you (finally...) : iPhone LickByNeck !!!!!!

A Whole New World - Disney Alladin

Peabo Bryson And Regina Belle's tune fingerstyle chord melody guitar BASIC arrangement played in the key of C.
A Whole New World - Disney Alladin - Peabo Bryson And Regina Belle - BASIC ARRANGEMENT played in the key of C
Classical Guitar Tablature : http://classicalguitartablature.blogspot.com/
E|---- 0------------ 0------------|------ 0---- 1------------------|
B|------------ 3------------------|---------- 3-------- 3----------|
G| 0---------------------- 0------|---- 0---------------------- 2--|
D| 2------------------------ 2----|--------------------------------|
A| 3------------------------------| 3------------------------------|
E|--------------------------------|--------------------------------|
Classical Guitar Tablature : http://classicalguitartablature.blogspot.com/
E|---- 0-------------- 0----------|------ 0---- 1------------------|
B|------------ 3------------------|---------- 3-------- 3----------|
G| 0-------------------------- 0--|---- 0---------------------- 2--|
D| 2------------------------------|--------------------------------|
A| 3------------------------------| 3------------------------------|
E|--------------------------------|--------------------------------|
Classical Guitar Tablature : http://classicalguitartablature.blogspot.com/
Classical Guitar Tablature : http://classicalguitartablature.blogspot.com/
E| 0---------- 1------ 0----------|------------------ 0------------|
B| 1---- 3---- 1-------- 1--------|---------- 1---------------- 3--|
G| 0---- 0-------------------- 0--|------ 0------ 0----------------|
D|---- 2--------------------------|---- 2------------------ 3------|
A| 3------------------------------|-------------- 3----------------|
E|--------------------------------|--------------------------------|
Classical Guitar Tablature : http://classicalguitartablature.blogspot.com/
E| 0---------- 1------ 0----------| 0------------------------------|
B| 1------ 3-- 1---------- 1------| 1---------- 1-- 3--------------|
G| 0---- 0---- 0------ 0----------| 2---- 2---------------- 0------|
D|---- 2 2------------------------|---- 3-------------- 0------ 0--|
A| 3------------------------------| 0-------------- 2--------------|
E|--------------------------------|--------------------------------|
Classical Guitar Tablature : http://classicalguitartablature.blogspot.com/
E|---------- 0--------------------|--------------------------------|
B| 3---- 2---------- 3-- 0------ 3|------ 1---- 0------ 1----------|
G| 2---------------- 1---------- 2|------ 2---- 0------ 0---- 0-- 2|
D|-- 3-------------- 0------ 0----|-- 2-------- 0---- 2-- 2--------|
A|------------------------------ 0|--------------------------------|
E| 1------------ 0----------------|-------------- 3-------------- 1|
Classical Guitar Tablature : http://classicalguitartablature.blogspot.com/
E|--------------------------------|------------------ 0------------|
B|------ 1---- 3---- 1------------|------------ 1-------------- 3--|
G|-------------------------- 0----|------ 0------ 0----------------|
D|---- 3--------------------------|---- 2------------------ 3------|
A|------------------------------ 3|--------------------------------|
E|-------------- 1----------------|--------------------------------|
Classical Guitar Tablature : http://classicalguitartablature.blogspot.com/
E| 0---------- 1------ 0----------|------------------ 0------------|
B| 1---- 3---- 1-------- 1--------|---------- 1---------------- 3--|
G| 0---- 0-------------------- 0--|------ 0------ 0----------------|
D|---- 2--------------------------|---- 2------------------ 3------|
A| 3------------------------------|-------------- 3----------------|
E|--------------------------------|--------------------------------|
Classical Guitar Tablature : http://classicalguitartablature.blogspot.com/
E| 0---------- 1------ 0----------| 0------------------------------|
B| 1------ 3-- 1---------- 1------| 1---------- 1-- 3--------------|
G| 0---- 0---- 0------ 0----------| 2---- 2---------------- 0------|
D|---- 2 2------------------------|---- 3-------------- 0------ 0--|
A| 3------------------------------| 0-------------- 2--------------|
E|--------------------------------|--------------------------------|
Classical Guitar Tablature : http://classicalguitartablature.blogspot.com/
E|---------- 0--------------------|--------------------------------|
B| 3---- 2---------- 3-- 0------ 3|------ 1---- 0------ 1----------|
G| 2---------------- 1---------- 2|------ 2---- 0------ 0---- 0-- 2|
D|-- 3-------------- 0------ 0----|-- 2-------- 0---- 2-- 2--------|
A|------------------------------ 0|--------------------------------|
E| 1------------ 0----------------|-------------- 3----------------|
Classical Guitar Tablature : http://classicalguitartablature.blogspot.com/
E|--------------------------------|---------------------- 5--------|
B|------ 1-- 3------ 1-------- 5--|------------ 5-- 6--------------|
G|------ 2-- 2------ 2------------|-------- 5------ 5--------------|
D|-- 3-------------------- 3------|---- 5-------------- 5------ 5--|
A|--------------------------------|--------------------------------|
E| 1------------ 1----------------| 8-------------- 8--------------|
Classical Guitar Tablature : http://classicalguitartablature.blogspot.com/
E| 3------------------------------|---------------------- 5--------|
B|---- 0------ 0------------------|------------ 5-- 6--------------|
G|-------- 0---------- 0------ 0--|------ 5-------- 5--------------|
D|---- 0------------------ 0------|---- 5-------------- 5------ 5--|
A| 2------------------------------|--------------------------------|
E|--------------------------------| 8-------------- 8--------------|
Classical Guitar Tablature : http://classicalguitartablature.blogspot.com/
E| 3---------- 1------ 0------ 0--|-------------- 0---- 1---- 3-- 7|
B| 3---- 3---- 3------------------|------------ 1 1---- 1---- 1----|
G|-------- 0----------------------|------ 0------ 0---- 0---- 0----|
D|---- 0------ 0------------------|---- 2--------------------------|
A| 2-------------- 2------------ 3|--------------------------------|
E|--------------------------------|--------------------------------|
Classical Guitar Tablature : http://classicalguitartablature.blogspot.com/
E|------------------------------ 7|------------------------------ 0|
B|--------10-- 8-------- 8--------|10----10---- 8-------- 8------ 3|
G|-- 9------------------------ 5--| 9 9---------------------- 5-- 5|
D|-------------------- 5----------|-------------------- 5----------|
A| 8-------------- 7--------------| 8-------------- 7--------------|
E|--------------------------------|--------------------------------|
Classical Guitar Tablature : http://classicalguitartablature.blogspot.com/
E|--------------------------------|------------ 0---------- 5---- 3|
B|------ 3---- 3-------------- 3--|---------------- 6------------ 3|
G|------ 5---- 5------ 5----------|-------- 0------ 5--------------|
D|-- 5----------------------------|---- 0---------- 7-- 7----------|
A| 0------------ 5----------------|--------------------------------|
E|--------------------------------| 3-------------- 5--------------|
Classical Guitar Tablature : http://classicalguitartablature.blogspot.com/
E|--------------------------------|---------------------- 5------ 3|
B|---------- 3---------------- 3--|------------ 5-- 6------------ 3|
G|------ 0-------------- 0--------|------ 5-------- 5------------ 4|
D|-- 0-------------- 0------------|---- 5-------------- 5------ 5--|
A|-------------- 2----------------|--------------------------------|
E| 3------------------------------| 8-------------- 8--------------|
Classical Guitar Tablature : http://classicalguitartablature.blogspot.com/
E|---------------------------- 0--|-------------------------- 3-- 7|
B|------ 3---- 6---- 5------------|------------ 1 5---- 6----------|
G|------------ 3------------------|-------- 2---- 5----------------|
D|---- 5------ 6-------- 6--------|---- 2-------- 5----------------|
A|--------------------------------| 0------------------------------|
E| 3------------ 4----------------|---------------- 3--------------|
Classical Guitar Tablature : http://classicalguitartablature.blogspot.com/
E|------------------------------ 7|------------------------------ 0|
B|--------10-- 8-------- 8--------|10----10---- 8-------- 8------ 3|
G|-- 9------------------------ 5--| 9 9---------------------- 5-- 5|
D|-------------------- 5----------|-------------------- 5----------|
A| 8-------------- 7--------------| 8-------------- 7--------------|
E|--------------------------------|--------------------------------|
Classical Guitar Tablature : http://classicalguitartablature.blogspot.com/
E|--------------------------------|------------ 3------------------|
B|------ 3---- 3-------------- 6--|---- 5-------------- 5------ 1--|
G|------ 5---- 5------ 5------ 5--|---- 5-------------- 5----------|
D|-- 5------------------------ 6--|-------- 6---------- 3-- 3------|
A| 0------------ 5----------------|--------------------------------|
E|--------------------------------| 6-------------- 3--------------|
Classical Guitar Tablature : http://classicalguitartablature.blogspot.com/
E|--------------------------------|------------------------ 5------|
B|---------- 1--------------------|---------- 5---- 6--------------|
G|------ 0---------- 0-------- 0--|------ 5-------- 5--------------|
D|---- 2---------------- 2--------|---- 5-------- 6---- 7------ 7--|
A| 3------------------------------|--------------------------------|
E|--------------------------------| 8-------------- 8--------------|
Classical Guitar Tablature : http://classicalguitartablature.blogspot.com/
E| 3------------------------------|---------------------- 5--------|
B|---- 0------ 0------------------|------------ 5-- 6--------------|
G|-------- 0---------- 0------ 0--|------ 5-------- 5--------------|
D|---- 0------------------ 0------|---- 5-------------- 5------ 5--|
A| 2------------------------------|--------------------------------|
E|--------------------------------| 8-------------- 8--------------|
Classical Guitar Tablature : http://classicalguitartablature.blogspot.com/
E| 3---------- 1------ 0------ 0--|-------------- 0---- 1---- 3-- 7|
B| 3---- 3---- 3------------------|------------ 1 1---- 1---- 1----|
G|-------- 0----------------------|------ 0------ 0---- 0---- 0----|
D|---- 0------ 0------------------|---- 2--------------------------|
A| 2-------------- 2------------ 3|--------------------------------|
E|--------------------------------|--------------------------------|
Classical Guitar Tablature : http://classicalguitartablature.blogspot.com/
E|------------------------------ 7|------------------------------ 8|
B|--------10-- 8-------- 8--------|10----10---- 8-------- 8--------|
G|-- 9------------------------ 5--| 9 9---------------------- 5----|
D|-------------------- 5----------|-------------------- 5----------|
A| 8-------------- 7--------------| 8-------------- 7--------------|
E|--------------------------------|--------------------------------|
Classical Guitar Tablature : http://classicalguitartablature.blogspot.com/
E|------ 8---- 7---- 5------ 3----|---------------------- 5------ 3|
B| 5---- 5---- 5---- 5---- 8 6----|---------- 5-- 6-------------- 3|
G| 5-- 5 5---- 5---- 5---- 5 5----|------ 5------ 5---------- 5----|
D|------------------------ 5------|-- 3-------------- 3------------|
A| 0-------------- 5--------------|--------------------------------|
E|--------------------------------| 3------------ 3----------------|
Classical Guitar Tablature : http://classicalguitartablature.blogspot.com/
E|--------------------------------|---------------------- 5------ 3|
B|---------- 3---------------- 3--|------------ 5-- 6------------ 3|
G|------ 0-------------- 0--------|------ 5-------- 5------------ 4|
D|-- 0-------------- 0------------|---- 5-------------- 5------ 5--|
A|-------------- 2----------------|--------------------------------|
E| 3------------------------------| 8-------------- 8--------------|
Classical Guitar Tablature : http://classicalguitartablature.blogspot.com/
E|---------------------------- 0--|-------------------------- 3-- 7|
B|------ 3---- 6---- 5------------|------------ 1 5---- 6----------|
G|------------ 3------------------|-------- 2---- 5----------------|
D|---- 5------ 6-------- 6--------|---- 2-------- 5----------------|
A|--------------------------------| 0------------------------------|
E| 3------------ 4----------------|---------------- 3--------------|
Classical Guitar Tablature : http://classicalguitartablature.blogspot.com/
E|------------------------------ 7|------------------------------ 7|
B|--------10-- 8-------- 8--------|10----10---- 8-------- 8--------|
G|-- 9------------------------ 5--| 9 9---------------------- 5----|
D|-------------------- 5----------|------------------ 5------------|
A| 8-------------- 7--------------| 8-------------- 7--------------|
E|--------------------------------|--------------------------------|
Classical Guitar Tablature : http://classicalguitartablature.blogspot.com/
E|------ 5------------------------|---- 3---- 5-- 0---------- 0-- 0|
B| 8---------- 8-------- 8------ 5|-------------- 1-- 3 1-------- 3|
G|---- 8---------------------- 5 5|-------------- 0-- 0 0-------- 5|
D|------------ 5------ 5-------- 3|-------------------- 2-- 2------|
A| 8-------------- 7--------------|-------------- 0----------------|
E|------------------------------ 4|--------------------------------|
Classical Guitar Tablature : http://classicalguitartablature.blogspot.com/
E|--------------------------------|------------ 3------------------|
B|------ 3---- 3-------------- 6--|---- 5-------------- 5------ 1--|
G|-------- 5-- 5---- 5-------- 5--|---- 5-------------- 5----------|
D|---- 5------------------ 5-- 6--|-------- 6---------- 3-- 3------|
A| 5-------------- 5--------------|--------------------------------|
E|--------------------------------| 6-------------- 3--------------|
Classical Guitar Tablature : http://classicalguitartablature.blogspot.com/
E|--------------------------------|--------------------------------|
B|------------ 1------------------| 1------------------------ 1----|
G|-------- 2---------- 2----------| 2------------------------------|
D|---- 2------------------ 2---- 2|--------------------------------|
A| 0------------------------------|--------------------------------|
E|------------------------------ 2|--------------------------------|
Classical Guitar Tablature : http://classicalguitartablature.blogspot.com/
E|--------------------------------|------------------ 0---------- 1|
B|------ 1-------- 0--------------|---------------- 1-------- 3----|
G|------ 2------------------------|-------------------------- 0----|
D|------ 3------------------------|-------------------------- 2----|
A|--------------------------------|-------------------- 3----------|
E|---- 3--------------------------|--------------------------------|
Classical Guitar Tablature : http://classicalguitartablature.blogspot.com/
E|------ 0------------------------|-------- 0----------------------|
B|---------- 1------------------ 1|---------------------- 3--------|
G|-------------- 0---------- 0----|---- 0--------------------------|
D|---------------------- 2--------|-------------- 3----------------|
A|------------------ 3------------|--------------------------------|
E|--------------------------------|--------------------------------|
Classical Guitar Tablature : http://classicalguitartablature.blogspot.com/
E|--------------------------------|--------------------------------|
B|---------------------- 1--------|--------------------------------|
G|-------------------- 0----------|--------------------------------|
D|------------------ 0------------|--------------------------------|
A|------------------ 3------------|--------------------------------|
E|--------------------------------|--------------------------------|
Classical Guitar Tablature : http://classicalguitartablature.blogspot.com/

0 ความคิดเห็น:

แสดงความคิดเห็น