To celebrate the anniversary, I am giving you (finally...) : iPhone LickByNeck !!!!!!

Wind Beneath My Wings (BASIC)

Bette Midler's tune fingerstyle chord melody guitar BASIC arrangement played in the key of A.
Wind Beneath My Wings - BETTE MIDLER - BASIC ARRANGEMENT played in the key of A
Classical Guitar Tablature : http://classicalguitartablature.blogspot.com/
E|-------------------- 5 5-- 4 2 0|------ 2-------------- 2-- 0----|
B| 2---------- 5------------------|-------------------------- 2-- 3|
G| 2---- 4---------------------- 2|------------ 2------ 2----------|
D|---- 2---- 2--------------------|-- 4------ 4------ 4------------|
A| 0---------------------------- 5|--------------------------------|
E|--------------------------------|--------------------------------|
Classical Guitar Tablature : http://classicalguitartablature.blogspot.com/
E|-------------------- 5 5-- 4 2 0|------ 0------------------------|
B| 2---------- 5------------------| 3---- 3------------------------|
G| 2---- 4------------------------| 2---------- 2------------------|
D|-- 2------ 2--------------------|-- 4------ 4--------------------|
A| 0------------------------------| 5------------------------------|
E|--------------------------------|---------------------------- 0--|
Classical Guitar Tablature : http://classicalguitartablature.blogspot.com/
Classical Guitar Tablature : http://classicalguitartablature.blogspot.com/
E|--------------------------------|--------------------------------|
B|-------- 2 3 5 3-- 2------------|------------------ 0------------|
G|------ 2---------------- 4-- 2--| 2-------------- 2-- 2----------|
D|---- 2--------------------------|------ 4------------------------|
A| 0------------------------------| 5-------------------- 5--------|
E|--------------------------------|---------------------------- 0--|
Classical Guitar Tablature : http://classicalguitartablature.blogspot.com/
E|--------------------------------|--------------------------------|
B|------ 2-- 3 5 3-- 2-------- 2--|---------- 0---------- 0------ 2|
G|------ 2---------------- 4------| 2---- 2---- 2------ 2------ 2--|
D|---- 2--------------------------|---- 4------------ 4------ 2----|
A| 0------------------------------| 5-------------- 5---- 4--------|
E|--------------------------------|--------------------------------|
Classical Guitar Tablature : http://classicalguitartablature.blogspot.com/
E|--------------------------------|--------------------------------|
B|-------- 3 2 3-- 2---------- 2--| 0-------- 0-- 0----------------|
G|------ 2-------- 2-- 4-- 2------|------ 1---------- 1-- 1--------|
D|---- 4---------- 2--------------|---- 2------ 2---------- 2------|
A| 2------------ 0----------------|--------------------------------|
E|--------------------------------| 4-------------- 0--------------|
Classical Guitar Tablature : http://classicalguitartablature.blogspot.com/
E|--------------------------------|--------------------------------|
B|-------- 3 2 3-- 2---------- 2--| 0-------- 0---------- 0--------|
G|------ 2-------- 2-- 4-- 2---- 1|------ 1-- 1-------- 1---- 1----|
D|---- 4---------- 2--------------|---- 2------ 2---- 2------------|
A| 2------------ 0----------------|--------------------------------|
E|--------------------------------| 4------------ 0----------------|
Classical Guitar Tablature : http://classicalguitartablature.blogspot.com/
E|--------------------------------|--------------------------------|
B|-------- 2 3 5 3-- 2------------|------------------ 0------------|
G|------ 2---------------- 4-- 2--| 2-------------- 2-- 2----------|
D|---- 2--------------------------|------ 4------------------------|
A| 0------------------------------| 5-------------------- 5--------|
E|--------------------------------|---------------------------- 0--|
Classical Guitar Tablature : http://classicalguitartablature.blogspot.com/
E|--------------------------------|--------------------------------|
B|------ 2-- 3 5 3-- 2-------- 2--|---------- 0---------- 0------ 2|
G|------ 2---------------- 4------| 2---- 2---- 2------ 2------ 2--|
D|---- 2--------------------------|---- 4------------ 4------ 2----|
A| 0------------------------------| 5-------------- 5---- 4--------|
E|--------------------------------|--------------------------------|
Classical Guitar Tablature : http://classicalguitartablature.blogspot.com/
E|--------------------------------|--------------------------------|
B|-------- 3 2 3-- 2---------- 2--| 0-------- 0-- 0----------------|
G|------ 2-------- 2-- 4-- 2------|------ 1---------- 1-- 1--------|
D|---- 4---------- 2--------------|---- 2------ 2---------- 2------|
A| 2------------ 0----------------|--------------------------------|
E|--------------------------------| 4-------------- 0--------------|
Classical Guitar Tablature : http://classicalguitartablature.blogspot.com/
E|---------------------------- 2--| 0------------------------------|
B|---- 3 3-- 2 3-- 2--------------| 0-------- 0---------- 0------ 0|
G|---- 2---------- 2 4-- 2--------| 1---- 1---- 1------ 1------ 1--|
D|-- 4---------- 2----------------|---- 2-------- 2-- 2------ 0----|
A| 2------------ 0----------------|--------------------------------|
E|--------------------------------| 0-------------- 0------ 1------|
Classical Guitar Tablature : http://classicalguitartablature.blogspot.com/
E|------ 2-- 4 5-- 4-- 0-------- 0|--------------------------------|
B|---- 2---------- 7 7------------|------ 2------ 2---- 2------ 5--|
G|-- 2------------ 6------ 7------|------------ 2------ 2---- 4----|
D|-- 2----------------------------|---- 2---- 2------ 2---- 2------|
A|-------------- 5----------------| 0-------------- 0--------------|
E| 2------------------------------|------------------------ 4------|
Classical Guitar Tablature : http://classicalguitartablature.blogspot.com/
E|------ 2-- 4 5-- 4-- 0------ 0--|--------------------------------|
B|---- 2---------- 7 7------------|-------------------- 2------ 5--|
G|-- 2------------ 6------ 7------|------ 2---- 2---- 2------ 4----|
D|-- 2----------------------------|-- 2---- 2------ 2------ 2------|
A|-------------- 5-------------- 0|-------------- 0----------------|
E| 2------------------------------|------------------------ 4------|
Classical Guitar Tablature : http://classicalguitartablature.blogspot.com/
E|-------- 2 4-- 5 4-------- 0----| 0------------------------------|
B|-------- 2 2-- 2 7-- 7----------|-------- 2------------ 2---- 2--|
G|-------- 2 2---- 6------ 6---- 7| 2------ 2-- 2------ 2------ 0--|
D|---- 2--------------------------|---- 2------ 2---- 2------ 2----|
A|---------------- 5--------------| 0------------ 0-------- 1------|
E| 2------------------------------|--------------------------------|
Classical Guitar Tablature : http://classicalguitartablature.blogspot.com/
E|--------------------------------|--------------------------------|
B|------ 0-- 2 3 2---- 0-- 0------|---------- 0---------- 0---- 5--|
G|---- 2-------- 2------ 2------ 2|------ 2---- 2------ 2------ 4--|
D|---- 0-------- 0----------------|-- 2---------- 2-- 2------ 2----|
A| 2---------------------------- 0|---------------- 0--------------|
E|---------------- 0--------------|------------------------ 4------|
Classical Guitar Tablature : http://classicalguitartablature.blogspot.com/
E|------ 2-- 4 5 7-- 5---- 5-- 5 7|-- 5-------- 5------------ 9 9 9|
B|---- 2-------- 7-- 7---- 7------| 5 5------ 5-------- 5---- 9--10|
G|---- 2-------- 6------ 6------ 6|-- 6------ 6------ 6------ 9 9 9|
D|-- 2----------------------------|-------- 7------ 7--------------|
A|---------------- 5--------------| 0------------ 0------11--------|
E| 2------------------------------|--------------------------------|
Classical Guitar Tablature : http://classicalguitartablature.blogspot.com/
E|-------------------- 5 7-- 5-- 2|--------------------------------|
B|--1212--1210--10------ 7-- 7----|-- 5---- 5---------- 5------ 5--|
G|-- 9 9-- 9 9-- 9-- 6-- 6-- 6----|------ 2-- 2------ 2------ 4----|
D|--1111--1111--11----------------|---- 2-------- 2-- 2---- 2------|
A| 9------ 9------ 5--------------| 0-------------- 0--------------|
E|--------------------------------|---------------------- 4------ 2|
Classical Guitar Tablature : http://classicalguitartablature.blogspot.com/
E|------ 2-- 4 5 7-- 9---- 7-- 5--| 2------------------------------|
B|---- 2---------------- 7--------| 2-- 5------ 5------ 5-------- 2|
G|-- 2------------ 6-- 6----------| 2-------- 2-------- 2------ 0--|
D| 2------------------------------|-- 2---- 2-------- 2---- 2------|
A|-------------- 5----------------| 0-------------- 0------ 1------|
E|--------------------------------|--------------------------------|
Classical Guitar Tablature : http://classicalguitartablature.blogspot.com/
E|--------------------------------|-------------------- 5-- 5 4 2 0|
B|------ 0-- 2 3 2---- 0-- 0------|------------ 5------------------|
G|---- 2-------- 2------ 2--------| 2---- 4---------------------- 2|
D|---- 0-------- 0----------------| 2------------------------------|
A| 2------------------------------| 0---------------------------- 5|
E|---------------- 0--------------|--------------------------------|
Classical Guitar Tablature : http://classicalguitartablature.blogspot.com/
E|------ 2-------------- 2-- 0----|-------------------- 5 5-- 4 2 0|
B|-------------------------- 2-- 3| 2---------- 5------------------|
G|------------ 2------ 2----------| 2---- 4------------------------|
D|-- 4------ 4------ 4------------|-- 2------ 2--------------------|
A|--------------------------------| 0------------------------------|
E|--------------------------------|--------------------------------|
Classical Guitar Tablature : http://classicalguitartablature.blogspot.com/
E|------ 0------------------------| 0------------------------------|
B| 3---- 3------------------------| 2-------- 2---------- 2--------|
G| 2---------- 2------------------| 2---- 2---------- 2-- 2---- 2--|
D|-- 4------ 4--------------------|---- 2-------------- 2----------|
A| 5------------------------------| 0------------------------------|
E|---------------------------- 0--|--------------------------------|
Classical Guitar Tablature : http://classicalguitartablature.blogspot.com/
E| 5------------------------ 5-- 7|-- 7-- 7-- 5-- 5----------------|
B| 7-------- 7------------ 7---- 5|---- 5 5-------------- 5---- 5--|
G| 6---- 6---------- 6 6-------- 6|---- 6 6-- 6-- 6---- 6---- 6----|
D|---- 7-------------- 7----------|------------------ 7------------|
A| 5------------------------------| 0------------------------------|
E|--------------------------------|--------------------------------|
Classical Guitar Tablature : http://classicalguitartablature.blogspot.com/
E| 0------------------------ 0 2 0|---------- 0 2 0-------- 0-- 0 0|
B|-- 3-- 3-- 2 2-- 0------ 0---- 0|-------- 0---- 0----------------|
G| 2 2-- 2-- 2 2-------- 2------ 2|------ 2-------------- 2------ 2|
D|-- 4-- 4-- 4 4------ 4----------|---- 2-------------- 2----------|
A| 5------------------------------| 0-------------- 0--------------|
E|--------------------------------|--------------------------------|
Classical Guitar Tablature : http://classicalguitartablature.blogspot.com/
E|--------------------------------|-------------------- 5-- 5 4 2 0|
B|-- 3-- 3-- 2 2---- 0---- 0------|------------ 5------------------|
G|-- 2-- 2-- 2 2-------- 2--------| 2---- 4---------------------- 2|
D|--------------------------------| 2------------------------------|
A| 2------------------------------| 0---------------------------- 5|
E|---------------- 0--------------|--------------------------------|
Classical Guitar Tablature : http://classicalguitartablature.blogspot.com/
E|------ 2-------------- 2-- 0----|-------------------- 5 5-- 4 2 0|
B|-------------------------- 2-- 3| 2---------- 5------------------|
G|------------ 2------ 2----------| 2---- 4------------------------|
D|-- 4------ 4------ 4------------|-- 2------ 2--------------------|
A|--------------------------------| 0------------------------------|
E|--------------------------------|--------------------------------|
Classical Guitar Tablature : http://classicalguitartablature.blogspot.com/
E|------ 0------------------------|--------------------------------|
B| 3---- 3------------------------|-- 0----------------------------|
G| 2---------- 2------------------| 2------------------------------|
D|-- 4------ 4--------------------| 2------------------------------|
A| 5------------------------------| 0------------------------------|
E|---------------------------- 0--|--------------------------------|
Classical Guitar Tablature : http://classicalguitartablature.blogspot.com/

0 ความคิดเห็น:

แสดงความคิดเห็น