To celebrate the anniversary, I am giving you (finally...) : iPhone LickByNeck !!!!!!
0 com

Massachusetts - Bee Gees

Bee Gees' tune fingerstyle chord melody guitar BASIC arrangement played in the key of G.

Massachusetts - Bee Gees - BASIC ARRANGEMENT played in the key of G
Classical Guitar Tablature : http://classicalguitartablature.blogspot.com/
E|--------------------------------|--------------------------------|
B|------------ 0------------------|---------------------------- 0--|
G|-------- 0-------------- 0------|-------- 0-------------- 0------|
D|---- 0-------------- 0------ 0--|---- 0------ 0------ 0----------|
A|--------------------------------|--------------------------------|
E| 3-------------- 3--------------| 3-------------- 3--------------|
Classical Guitar Tablature : http://classicalguitartablature.blogspot.com/
E|--------------------------------|--------------------------------|
B|-------- 0----------------------|--------------------------------|
G|---- 0-------------- 0------ 2--|------ 2-------- 0------ 0------|
D| 0---------- 0-- 2---------- 2--|---- 2------ 2-- 2-- 2------ 2--|
A|--------------------------------| 0-------------- 3--------------|
E| 3-------------- 3--------------|--------------------------------|
Classical Guitar Tablature : http://classicalguitartablature.blogspot.com/
E|--------------------------------|--------------------------------|
B|------------ 0------------------|------------ 0------------------|
G|-------- 0-------------- 0------|-------- 0-------------- 0------|
D|---- 0-------------- 0------ 0--|---- 0-------------- 0------ 0--|
A|--------------------------------|--------------------------------|
E| 3-------------- 3--------------| 3-------------- 3--------------|
Classical Guitar Tablature : http://classicalguitartablature.blogspot.com/
E|--------------------------------|--------------------------------|
B|-------- 0----------------------|--------------------------------|
G|---- 0-------------- 0------ 2--|------ 2-------- 0------ 0------|
D| 0---------- 0-- 2---------- 2--|---- 2------ 2-- 2-- 2------ 2--|
A|--------------------------------| 0-------------- 3--------------|
E| 3-------------- 3--------------|--------------------------------|
Classical Guitar Tablature : http://classicalguitartablature.blogspot.com/
E|--------------------------------|--------------------------------|
B|------------ 0------------------|-------------- 0------ 1--------|
G|-------- 0-------------- 0------|-------- 0---- 0-------- 0------|
D|---- 0-------------- 0------ 0--|---- 0------ 0------ 0------ 0--|
A|--------------------------------|--------------------------------|
E| 3-------------- 3--------------| 3-------------- 3--------------|
Classical Guitar Tablature : http://classicalguitartablature.blogspot.com/
E|---------------------------- 3--|------------ 3 3------ 2------ 2|
B| 3---------- 3-- 0-- 3----------|------ 3---- 3-- 3---------- 3 1|
G| 0------ 0------ 0-- 0----------|------ 0------------------------|
D|---- 0------------------ 0------|---- 0-------------- 0----------|
A|--------------------------------| 2-------------- 2--------------|
E| 3-------------- 3--------------|--------------------------------|
Classical Guitar Tablature : http://classicalguitartablature.blogspot.com/
E|---- 0--------------------------|--------------------------------|
B|---- 1------ 1---------- 1------|-- 1------ 1------ 1-------- 1--|
G| 0-- 0-- 0---------- 0------ 0--|------ 0------------------------|
D|--------------------------------|---------------- 4------ 2------|
A| 3-------------- 3--------------| 3-------------- 3--------------|
E|--------------------------------|--------------------------------|
Classical Guitar Tablature : http://classicalguitartablature.blogspot.com/
E|--------------------------------|--------------------------------|
B|-------- 0-------------- 0------|-------------- 0----------------|
G|---- 0------ 0-------------- 0 5|------ 5---- 5---------- 2------|
D| 0------------------ 0----------|-- 4-------------- 4-------- 4--|
A|------------------------------ 5|-------------- 5----------------|
E| 3-------------- 3--------------|--------------------------------|
Classical Guitar Tablature : http://classicalguitartablature.blogspot.com/
E|--------------------------------|--------------------------------|
B|------------ 0------------------|---------------------------- 0--|
G| 0------ 0-------------- 0------|-------- 0-------------- 0------|
D|---- 0-------------- 0------ 0--|---- 0------ 0------ 0----------|
A|--------------------------------|--------------------------------|
E| 3-------------- 3--------------| 3-------------- 3--------------|
Classical Guitar Tablature : http://classicalguitartablature.blogspot.com/
E|--------------------------------| 0---------- 0-- 0---------- 0--|
B| 3---------- 3-- 1------ 3------| 1-------------- 1--------------|
G| 0------ 0------ 0------ 0------| 0------ 0------ 0---- 0--------|
D|---- 0-------------- 0------ 0 2|---- 2------------ 2------------|
A|--------------------------------| 0-------------- 3--------------|
E| 3-------------- 3--------------|--------------------------------|
Classical Guitar Tablature : http://classicalguitartablature.blogspot.com/
E| 0------------------------------|--------------------------------|
B| 0 3----------------------------|------------ 1-------------- 1--|
G|-- 0-------- 0---------- 0------|-------- 2-------------- 0------|
D|-------- 0---------- 0------ 0--|---- 2-------------- 2----------|
A|--------------------------------| 0-------------- 3--------------|
E| 3-------------- 3--------------|--------------------------------|
Classical Guitar Tablature : http://classicalguitartablature.blogspot.com/
E|------------------------------ 0|---------- 0-- 0------------ 0--|
B| 3---------- 3-- 1------ 3------| 1------------ 1----------------|
G| 0------ 0------ 0--------------|-------- 0-------------- 0------|
D|---- 0-------------- 0------ 0--|---- 2-------------- 2----------|
A|--------------------------------| 0------------ 3----------------|
E| 3-------------- 3--------------|--------------------------------|
Classical Guitar Tablature : http://classicalguitartablature.blogspot.com/
E| 0------------------------------|---------------- 0--------------|
B| 3-- 3--------------------------|------------ 1-- 1--------------|
G| 0---------- 0---------- 0------|-------- 2------ 0--------------|
D|-------- 0---------- 0------ 0--|---- 2-------- 2----------------|
A|--------------------------------| 0-------------- 3--------------|
E| 3-------------- 3--------------|--------------------------------|
Classical Guitar Tablature : http://classicalguitartablature.blogspot.com/
E|--------------------------------|--------------------------------|
B|------------ 3-- 3--------------|--------------------------------|
G|---------------- 0--------------|--------------------------------|
D|---------------- 0--------------|--------------------------------|
A|--------------------------------|--------------------------------|
E|---------------- 3--------------|--------------------------------|
Classical Guitar Tablature : http://classicalguitartablature.blogspot.com/
0 com

Collide - Howie Day

Howie Day's tune fingerstyle chord melody guitar BASIC arrangement played in the key of C.
Classical Guitar Tablature : http://classicalguitartablature.blogspot.com/

Collide - Howie Day - BASIC ARRANGEMENT played in the key of C
Classical Guitar Tablature : http://classicalguitartablature.blogspot.com/
E|--------------------------------|--------------------------------|
B|-------- 1-- 1------ 0------ 1--|-------- 1-- 1---- 0-------- 1--|
G|------ 0 0-- 0------ 0------ 0--|------ 0 0-- 0---- 0-------- 0--|
D|---- 2-- 2-- 2------ 0-- 0-- 2--|---- 2-- 2-- 2---- 0---- 0-- 2--|
A| 3-------------- 3--------------| 2-------------- 2--------------|
E|--------------------------------|--------------------------------|
Classical Guitar Tablature : http://classicalguitartablature.blogspot.com/
E|--------------------------------|--------------------------------|
B|------ 1 1-- 1---- 0-------- 1--|-------- 1-- 1---- 0-------- 1--|
G|------ 0 0-- 0---- 0-------- 2--|------ 2 2-- 2---- 0-------- 0--|
D|---- 2-- 2-- 2---- 0---- 0-- 2--|---- 2-- 2-- 2---- 0---- 0-- 2--|
A| 0-------------- 0--------------|--------------------------------|
E|--------------------------------| 1-------------- 1--------------|
Classical Guitar Tablature : http://classicalguitartablature.blogspot.com/
E|--------------------------------|--------------------------------|
B|------ 1------ 1---- 0------ 1--|-------- 1-- 1---- 0-------- 1--|
G|---- 0 0------ 0---- 0------ 0--|------ 0 0-- 0---- 0-------- 0--|
D|---- 2 2------ 2---- 0-- 0-- 2--|---- 2-- 2-- 2---- 0---- 0-- 2--|
A| 3-------------- 3--------------| 2-------------- 2--------------|
E|--------------------------------|--------------------------------|
Classical Guitar Tablature : http://classicalguitartablature.blogspot.com/
E|--------------------------------|--------------------------------|
B|------ 1 1-- 1---- 0-------- 1--|-------- 1-- 1---- 0-------- 1--|
G|------ 0 0-- 0---- 0-------- 2--|------ 2 2-- 2---- 0-------- 0--|
D|---- 2-- 2-- 2---- 0---- 0-- 2--|---- 2-- 2-- 2---- 0---- 0-- 2--|
A| 0-------------- 0--------------|--------------------------------|
E|--------------------------------| 1-------------- 1--------------|
Classical Guitar Tablature : http://classicalguitartablature.blogspot.com/
E|--------------------------------|--------------------------------|
B|-------- 1-- 1------------------|---------------- 0--------------|
G|-------- 0-- 0------ 0----------|---------- 0-------- 0------ 0--|
D|---- 2---------------------- 2--|---- 0------------------ 0------|
A| 3------------------------------| 2------------------------------|
E|--------------------------------|--------------------------------|
Classical Guitar Tablature : http://classicalguitartablature.blogspot.com/
E|--------------------------------|--------------------------------|
B|-------- 1-- 1------------------|--------------------------------|
G|-------- 2-- 2------ 0----------|--------------------------------|
D|---- 2-- 2-- 2-------------- 2--|-------------------- 0----------|
A| 0------------------------------|---- 3------ 3------------------|
E|--------------------------------| 1------------------------------|
Classical Guitar Tablature : http://classicalguitartablature.blogspot.com/
E|--------------------------------|--------------------------------|
B|-------- 1-- 1------------------|---------------- 0--------------|
G|-------- 0-- 0------ 0----------|---------- 0-------- 0------ 0--|
D|---- 2---------------------- 2--|---- 0------------------ 0------|
A| 3------------------------------| 2------------------------------|
E|--------------------------------|--------------------------------|
Classical Guitar Tablature : http://classicalguitartablature.blogspot.com/
E|--------------------------------|--------------------------------|
B|-------- 1-- 1------------------|--------------------------------|
G|-------- 2-- 2------ 0----------|--------------------------------|
D|---- 2-- 2-- 2-------------- 2--|-------------------- 0----------|
A| 0------------------------------|---- 3------ 3------------------|
E|--------------------------------| 1------------------------------|
Classical Guitar Tablature : http://classicalguitartablature.blogspot.com/
E|--------------------------------|--------------------------------|
B|-------- 1-- 1------------------|---------------- 0--------------|
G|-------- 0-- 0------ 0----------|---------- 0-------- 0------ 0--|
D|---- 2---------------------- 2--|---- 0------------------ 0------|
A| 3------------------------------| 2------------------------------|
E|--------------------------------|--------------------------------|
Classical Guitar Tablature : http://classicalguitartablature.blogspot.com/
E|--------------------------------|--------------------------------|
B|-------- 1-- 1------------------|--------------------------------|
G|-------- 2-- 2------ 0----------|--------------------------------|
D|---- 2-- 2-- 2-------------- 2--|-------------------- 0----------|
A| 0------------------------------|---- 3------ 3------------------|
E|--------------------------------| 1------------------------------|
Classical Guitar Tablature : http://classicalguitartablature.blogspot.com/
E|--------------------------------|---- 0--------------------------|
B|-------- 1-- 1-------------- 3--|------------ 3------ 1----------|
G|-------- 0-- 0------ 0------ 0--|------------ 0-------------- 0--|
D|---- 2--------------------------|------------------------ 0------|
A| 3------------------------------| 2-------------- 2--------------|
E|--------------------------------|--------------------------------|
Classical Guitar Tablature : http://classicalguitartablature.blogspot.com/
E| 0------------------------------|---------------------------- 0--|
B| 1-- 3------ 1------ 0------ 1--|---------- 1---------- 1 3------|
G| 0-- 0------ 0-------------- 2--|------ 2------------------------|
D|---- 2------ 2-------------- 3--|---- 3-------------- 3----------|
A| 0-------------- 0--------------|--------------------------------|
E|--------------------------------| 1-------------- 1--------------|
Classical Guitar Tablature : http://classicalguitartablature.blogspot.com/
E| 0---------- 3------------------|-------------------------- 0----|
B| 1-- 3------ 1------ 3-- 1-- 3--|---------- 3---------- 1 3------|
G| 0-- 0------ 0------ 0-- 0------|-------- 0----------------------|
D|---- 2-- 2---------- 2-- 2------|---- 0------------ 0------------|
A| 3-------------- 3--------------| 2------------ 2----------------|
E|--------------------------------|--------------------------------|
Classical Guitar Tablature : http://classicalguitartablature.blogspot.com/
E| 0---------- 3------------------|-------------------------- 0----|
B| 1-- 3------ 1------ 3-- 1-- 1--|------------ 1-------- 1 3------|
G| 0-- 0-------------- 0-- 0-- 2--|-------- 2----------------------|
D|---- 2-- 2---------- 2-- 2------|---- 3-------------- 3----------|
A| 0-------------- 0--------------|--------------------------------|
E|--------------------------------| 1-------------- 1--------------|
Classical Guitar Tablature : http://classicalguitartablature.blogspot.com/
E| 0---------- 3------------------|--------------------------------|
B| 1-- 3------ 1------ 3-- 1-- 3--|---------------------------- 1--|
G| 0-- 0------ 0------ 0-- 0-- 0--|-------- 0-------- 0-------- 2--|
D|---- 2-- 2---------- 2-- 2-- 0--|---- 0------ 0---------- 0-- 2--|
A| 3-------------- 3--------------| 2------------ 2----------------|
E|--------------------------------|--------------------------------|
Classical Guitar Tablature : http://classicalguitartablature.blogspot.com/
E|---------------------------- 0--|--------------------------------|
B|-- 3-------- 1------------------|---- 3------ 1------ 0------ 1--|
G|---- 2------ 2---------- 2-- 2--|---- 2------ 0------ 0----------|
D|---- 2-- 2---------- 2----------|---- 3-- 3-- 0---------- 0------|
A| 0-------------- 0--------------|--------------------------------|
E|--------------------------------| 1-------------- 3--------------|
Classical Guitar Tablature : http://classicalguitartablature.blogspot.com/
E|------------------------------ 0|--------------------------------|
B|--------------------------------|---- 3------ 1------------------|
G|-------- 2-------- 2------------|--------------------------------|
D|---- 2-------- 3----------------|---------------------------- 2--|
A| 0------------------------------|------------------------ 0------|
E|---------- 1---------- 3--------|--------------------------------|
Classical Guitar Tablature : http://classicalguitartablature.blogspot.com/
E|---------------------------- 3--|---- 5------ 0------------------|
B|--------------------------------|--------------------------------|
G| 2-------- 2------------ 0------|------------------------ 2------|
D|------ 3------------------------|------------------ 2------------|
A|--------------------------------|---------------- 0--------------|
E|-- 1------------ 3--------------|---------------------------- 1--|
Classical Guitar Tablature : http://classicalguitartablature.blogspot.com/
E|---------------------------- 0--|--------------------------------|
B|--------------------------------|------ 3------------ 1----------|
G|-- 2------ 0--------------------|--------------------------------|
D| 3------ 0----------------------|--------------------------------|
A|--------------------------------|--------------------------------|
E|-------- 3----------------------|--------------------------------|
Classical Guitar Tablature : http://classicalguitartablature.blogspot.com/
E|--------------------------------|--------------------------------|
B| 1-- 1 1-- 1------ 0-------- 1--|------ 1---- 1-------------- 1--|
G| 0-- 0 0-- 0------ 0-------- 0--|------ 0 0-- 0---- 0-------- 0--|
D| 2-- 2 2-- 2------ 0---- 0-- 2--|---- 2-- 2-- 2---------- 0-- 2--|
A| 3------------ 3----------------| 2-------------- 2--------------|
E|--------------------------------|--------------------------------|
Classical Guitar Tablature : http://classicalguitartablature.blogspot.com/
E|---------------------------- 0--|--------------------------------|
B|---- 3------ 1-------------- 1--|---- 3------ 1---- 0-------- 1--|
G|---- 0------ 0---------- 0-- 2--|---- 2------ 2---- 2-------- 0--|
D|---- 2------ 2------ 2----------|---- 3-- 3-- 3---------- 3-- 2--|
A| 0-------------- 0--------------|--------------------------------|
E|--------------------------------| 1------------ 1----------------|
Classical Guitar Tablature : http://classicalguitartablature.blogspot.com/
E|--------------------------------|--------------------------------|
B|-------- 1-- 1---- 0-------- 1--|------ 1---- 1-------------- 1--|
G|------ 0 0 0------ 0-------- 0--|------ 0 0-- 0---- 0-------- 0--|
D|-- 2---- 2 2-------- 0-- 0-- 2--|---- 2-- 2-- 2---------- 0-- 2--|
A| 3-------------- 3--------------| 2-------------- 2--------------|
E|--------------------------------|--------------------------------|
Classical Guitar Tablature : http://classicalguitartablature.blogspot.com/
E|---------------------------- 0--|--------------------------------|
B|---- 3------ 1-------------- 1--|---- 3------ 1---- 0-------- 1--|
G|---- 0------ 0---------- 0-- 2--|---- 2------ 2---- 2-------- 0--|
D|---- 2------ 2------ 2----------|---- 3-- 3-- 3---------- 3-- 2--|
A| 0-------------- 0--------------|--------------------------------|
E|--------------------------------| 1------------ 1----------------|
Classical Guitar Tablature : http://classicalguitartablature.blogspot.com/
E|--------------------------------|--------------------------------|
B|--------------------------------|--------------------------------|
G|--------------------------------|--------------------------------|
D|--------------------------------|--------------------------------|
A| 3------------------------------|--------------------------------|
E|--------------------------------|--------------------------------|
Classical Guitar Tablature : http://classicalguitartablature.blogspot.com/
0 com

Loss Of Love-Theme from Sunflower - Henry Mancini

Henry Mancini's tune fingerstyle chord melody guitar BASIC arrangement played in the key of Em.
Classical Guitar Tablature : http://classicalguitartablature.blogspot.com/
You need to install the Flash plugin - http://www.webestools.com/

Loss Of Love-Theme from Sunflower - Henry Mancini - BASIC ARRANGEMENT played in the key of Em
Classical Guitar Tablature : http://classicalguitartablature.blogspot.com/
E|--------------------------------|--------------------------------|
B|--------------------------------|--------------------------------|
G|-------- 0------ 2------ 0------|-------- 0------ 2------ 0------|
D|--------------------------------|--------------------------------|
A|---- 2------ 2------ 2------ 2--|---- 2------ 2------ 2------ 2--|
E| 0------------------------------| 0------------------------------|
Classical Guitar Tablature : http://classicalguitartablature.blogspot.com/
E|--------------------------------|------------------------ 3------|
B|--------------------------------|---------------- 5--------------|
G|-------- 0------ 2------ 0------|------ 3---- 4------------------|
D|--------------------------------|--------------------------------|
A|---- 2------ 2------ 2---- 2----|-- 2----------------------------|
E| 0------------------------------| 0------------------------------|
Classical Guitar Tablature : http://classicalguitartablature.blogspot.com/
E| 7---------- 8-- 5--------------|----------------10-- 8-- 7------|
B| 5-------------- 5--------------|------10----12-- 8----------10--|
G| 5------ 5------ 5--------------|---- 9-------- 8----------------|
D|---- 5-------------- 5---- 5----|----10-------- 7----------------|
A| 0------------------------------| 9------------------------------|
E|------------------------ 3------|-------------- 7----------------|
Classical Guitar Tablature : http://classicalguitartablature.blogspot.com/
E| 7------------------------------|-------- 0-- 2 5-- 3-- 2-- 0-- 3|
B|---------- 0---------------- 0--|---- 0------------------------ 3|
G|-------- 0-------------- 0------|---- 0--------------------------|
D|---- 0-------------- 0----------|-- 2----------------------------|
A|-------------- 5----------------| 4-------------- 4--------------|
E| 0------------------------------|--------------------------------|
Classical Guitar Tablature : http://classicalguitartablature.blogspot.com/
E|---------- 5-- 2-------------- 2|---------- 3---------- 8--------|
B|-------------- 3---------- 5----| 1------------10------ 8--------|
G| 3---- 3------ 3-------- 3------|------ 2------ 8------ 8------ 0|
D|-- 2-------------- 2------------|-- 2-------------- 7------ 8----|
A|--------------------------------|---------------------- 8--------|
E| 2------------ 2-------------- 2|-------------- 7-------------- 0|
Classical Guitar Tablature : http://classicalguitartablature.blogspot.com/
E| 7------------------------------|------------------------ 3------|
B| 8------ 8------10------ 8------| 0-------------- 5--------------|
G|--------------------------------| 0------ 3-- 4------------------|
D|---- 9------ 9------ 9------ 9 0|--------------------------------|
A|--------------------------------|--------------------------------|
E|------------------------------ 0|--------------------------------|
Classical Guitar Tablature : http://classicalguitartablature.blogspot.com/
E| 7---------- 8-- 5--------------|----------------10-- 8-- 7------|
B| 5-------------- 5--------------|------10----12-- 8----------10--|
G| 5------ 5------ 5--------------|---- 9-------- 8----------------|
D|---- 5-------------- 5---- 5----|----10-------- 7----------------|
A| 0------------------------------| 9------------------------------|
E|------------------------ 3------|-------------- 7----------------|
Classical Guitar Tablature : http://classicalguitartablature.blogspot.com/
E| 7------------------------------|-------- 0-- 2 5-- 3-- 2-- 0-- 3|
B|---------- 0---------------- 0--|---- 0------------------------ 3|
G|-------- 0-------------- 0------|---- 0--------------------------|
D|---- 0-------------- 0----------|-- 2----------------------------|
A|-------------- 5----------------| 4-------------- 4--------------|
E| 0------------------------------|--------------------------------|
Classical Guitar Tablature : http://classicalguitartablature.blogspot.com/
E|---------- 5-- 2-------------- 2|---------- 5---- 3---- 2--------|
B|-------------- 3---------- 5-- 1|---------- 3---- 1------ 1------|
G| 3---- 3------ 3-------- 3---- 2|------ 2---- 3-- 2--------------|
D|-- 2-------------- 2------------|---- 2-------------- 1------ 1--|
A|--------------------------------|------------ 3-- 2--------------|
E| 2------------ 2----------------| 2------------------------------|
Classical Guitar Tablature : http://classicalguitartablature.blogspot.com/
E| 0------------------------------|--------------------------------|
B| 2---------- 2------------------| 0---------- 1------------ 0----|
G| 0------ 0----------------------| 0------ 0------ 2---- 2--------|
D|---- 2-------------- 2------ 2--|---- 2-------------- 2----------|
A|------------------------ 2------| 3-------------- 3--------------|
E| 0------------ 3----------------|--------------------------------|
Classical Guitar Tablature : http://classicalguitartablature.blogspot.com/
E|--------------------------------|--------------------------------|
B| 1-------- 3-- 0------ 1------ 3|---------------------------- 2--|
G| 2---- 2------ 2------ 2------ 2|-------- 2-------------- 2------|
D|-- 4-------------- 4------ 4----|---- 4------ 4------ 4----------|
A| 3------------ 3-------------- 2|---------------- 2--------------|
E|--------------------------------|--------------------------------|
Classical Guitar Tablature : http://classicalguitartablature.blogspot.com/
E|--------------------------------|--------------------------------|
B| 1------ 0----------------------|---------------- 0--------------|
G| 2------ 2---------- 2-- 4------| 2------ 0------ 4-- 4---- 4----|
D|---- 1------ 1-- 4---------- 4--|---- 2------ 2 5-------- 5------|
A| 2-------------- 2--------------|-------------- 5----------------|
E|--------------------------------| 0------------------------------|
Classical Guitar Tablature : http://classicalguitartablature.blogspot.com/
E|--------------------------------|--------------------------------|
B|-------- 0---------- 0----------|--------------------------------|
G|---- 0------ 0---------- 0------| 0-------------- 2---- 1--------|
D| 2-------------------------- 4--|---- 2-- 4---------- 2---- 2----|
A| 4-------------- 4--------------|--------------------------------|
E|--------------------------------| 2-------------- 2--------------|
Classical Guitar Tablature : http://classicalguitartablature.blogspot.com/
E|--------------------------------|---------------------- 3------ 7|
B|---------------- 1---- 4--------| 3-------------- 5------------10|
G| 0------ 2------ 2-------- 2----| 0-- 0-- 3-- 4---------------- 9|
D|---- 1------ 1------ 1-------- 0|--------------------------------|
A| 2-------------- 2--------------|--------------------------------|
E|------------------------------ 0|--------------------------------|
Classical Guitar Tablature : http://classicalguitartablature.blogspot.com/
E|------------ 8------------------|------------ 7--10 8-- 7--------|
B|----------------10--------------|---- 8--10 8---- 8 8-- 8----10--|
G|-------- 9------ 9------ 9------|---- 8-------- 8---- 8----------|
D|----10--------------10------10--|---- 7--------------------------|
A|--------------------------------|--------------------------------|
E| 0-------------- 0--------------| 0------------ 0----------------|
Classical Guitar Tablature : http://classicalguitartablature.blogspot.com/
E| 7------------------------------|-------- 0-- 2 5-- 3-- 2-- 0-- 3|
B|---------- 0---------------- 0--|---- 0------------------------ 3|
G|-------- 0-------------- 0------|---- 0--------------------------|
D|---- 0-------------- 0----------|-- 2----------------------------|
A|-------------- 5----------------| 4-------------- 4--------------|
E| 0------------------------------|--------------------------------|
Classical Guitar Tablature : http://classicalguitartablature.blogspot.com/
E|---------- 5-- 2-------------- 2|---------- 5---- 3---- 2--------|
B|-------------- 3---------- 5-- 1|---------- 3---- 1------ 1------|
G| 3---- 3------ 3-------- 3---- 2|------ 2---- 3-- 2--------------|
D|-- 2-------------- 2------------|---- 2-------------- 1------ 1--|
A|--------------------------------|------------ 3-- 2--------------|
E| 2------------ 2----------------| 2------------------------------|
Classical Guitar Tablature : http://classicalguitartablature.blogspot.com/
E| 0------------------------------|-------- 0-- 2 5-- 3-- 2-- 0-- 3|
B| 2---------- 2------------------|---- 0------------------------ 3|
G| 0------ 0----------------------|---- 0--------------------------|
D|---- 2-------------- 2------ 2--|-- 2----------------------------|
A|------------------------ 2------| 4-------------- 4--------------|
E| 0------------ 3----------------|--------------------------------|
Classical Guitar Tablature : http://classicalguitartablature.blogspot.com/
E|---------- 5-- 2----------------|--------------------------------|
B|-------------- 3---------- 5----|---------- 0-- 0-- 1------------|
G| 3---- 3------ 3-------- 3------|------ 2-- 2-- 2-- 2---------- 2|
D|-- 2-------------- 2------------|---- 2---- 2-- 2-- 2------ 2----|
A|--------------------------------|--------------------------------|
E| 2------------ 2----------------| 2-------------------- 0--------|
Classical Guitar Tablature : http://classicalguitartablature.blogspot.com/
E|------------------------ 0-- 0--|-- 2------ 3--------------------|
B|-- 0-- 0-- 1-- 1-- 3 3-- 1------|---------- 3-------- 3----------|
G|------ 2-- 2-- 2-- 2 2----------|-------- 2------ 2--------------|
D|------ 2-- 2-- 2-- 2 2----------|------------ 1------------------|
A|--------------------------------|--------------------------------|
E|--------------------------------|-------- 1----------------------|
Classical Guitar Tablature : http://classicalguitartablature.blogspot.com/
E|---------------- 2--------------|--------------------------------|
B|---------------- 2------ 2------|--------------------------------|
G|-------------- 0---- 0----------|--------------------------------|
D|------------------ 2------------|--------------------------------|
A|--------------------------------|--------------------------------|
E|-------------- 0----------------|--------------------------------|
Classical Guitar Tablature : http://classicalguitartablature.blogspot.com/
0 com

La Isla Bonita - Madonna

Madonna's tune fingerstyle chord melody guitar BASIC arrangement played in the key of Am.
Classical Guitar Tablature : http://classicalguitartablature.blogspot.com/

La Isla Bonita - Madonna - BASIC ARRANGEMENT played in the key of Am
Classical Guitar Tablature : http://classicalguitartablature.blogspot.com/
E|--------------------------------|--------------------------------|
B| 5------------------------------|--------------------------------|
G| 5-------------- 0 0------ 0----| 5-------- 5---- 5-- 5---- 5----|
D| 7 7------ 7---- 0 0------ 0----| 7-- 7---- 7---- 7-- 7---- 7----|
A|------------ 7-------- 2---- 5--|------------ 7-------------- 7--|
E| 5-- 8---------- 3--------------| 5---- 8-------- 5---- 8--------|
Classical Guitar Tablature : http://classicalguitartablature.blogspot.com/
E|--------------------------------|--------------------------------|
B|--------------------------------|--------------------------------|
G| 5-- 5---------- 0 0------ 0----| 5-------- 5---- 5-- 5---- 5----|
D| 7-- 7---- 7---- 0 0------ 0----| 7-- 7---- 7---- 7-- 7---- 7----|
A|------------ 7-------- 2---- 5--|------------ 7-------------- 7--|
E| 5---- 8-------- 3--------------| 5---- 8-------- 5---- 8--------|
Classical Guitar Tablature : http://classicalguitartablature.blogspot.com/
E|--------------------------------|--------------------------------|
B|---------------- 0-- 0------ 3--| 1 0-- 1------------------------|
G| 2---------- 2-- 0---- 0 0-- 4--| 2 2-- 2-------------------- 2--|
D|---- 2 2---------- 0-------- 5--| 2 2-- 2------------ 2------ 2--|
A| 0---------- 0-------- 2---- 5--| 0---------- 0-- 0---------- 0--|
E|------ 0-------- 3--------------|------ 0-------------- 0--------|
Classical Guitar Tablature : http://classicalguitartablature.blogspot.com/
E|---------------------------- 0--| 0---------- 0------------------|
B|------ 1-------- 1------ 3------| 1-- 1-- 1-- 1-- 3--------------|
G| 2---- 2-------- 2------ 2-- 2--| 0-- 0-- 0-- 0-- 4-- 4-- 4------|
D| 3-------------- 2------ 2------|---- 2-- 2------ 5-- 5-- 5------|
A|---- 3---------- 0---------- 0--| 3---------- 3-------- 5--------|
E| 1---------- 1------ 0----------|------ 3-------- 3---------- 3--|
Classical Guitar Tablature : http://classicalguitartablature.blogspot.com/
E|--------------------------------|--------------------------------|
B|---------------- 0-- 0------ 3--| 1 0-- 1------------------------|
G| 2---------- 2-- 0---- 0 0-- 4--| 2 2-- 2-------------------- 2--|
D|---- 2 2---------- 0-------- 5--| 2 2-- 2------------ 2------ 2--|
A| 0---------- 0-------- 2---- 5--| 0---------- 0-- 0---------- 0--|
E|------ 0-------- 3--------------|------ 0-------------- 0--------|
Classical Guitar Tablature : http://classicalguitartablature.blogspot.com/
E|---------------------------- 0--| 0---------- 0------------------|
B|------ 1-------- 1------ 3------| 1-- 1-- 1-- 1-- 3--------------|
G| 2---- 2-------- 2------ 2-- 2--| 0-- 0-- 0-- 0-- 4-- 4-- 4------|
D| 3-------------- 2------ 2------|---- 2-- 2------ 5-- 5-- 5------|
A|---- 3---------- 0---------- 0--| 3---------- 3-------- 5--------|
E| 1---------- 1------ 0----------|------ 3-------- 3---------- 3--|
Classical Guitar Tablature : http://classicalguitartablature.blogspot.com/
E|--------------------------------|--------------------------------|
B| 1 1-- 1---- 1-- 1 0-- 0--------| 3 3-- 3---- 3-- 3 1-- 1--------|
G| 2 2-- 2---- 2-- 0 0-- 0--------| 5 5-- 5---- 5-- 2 2-- 2--------|
D| 2 2-- 2---- 2-- 2 2-- 2--------| 3 3-- 3---- 3-- 2 2-- 2--------|
A| 0---------- 0-------- 2--------| 5---- 0---- 5-- 0---------- 0--|
E|------ 0-------- 0---------- 0--|---------------------- 0--------|
Classical Guitar Tablature : http://classicalguitartablature.blogspot.com/
E|--------------------------------|--------------------------------|
B|-- 0-- 0-------- 0--------------|------------ 0-- 1 0-- 1--------|
G| 5 5-- 5---- 5-- 2 2-- 2--------| 2 2-- 2-------- 2 2-- 2--------|
D| 5---------- 5-- 3 3-- 3--------| 3 3-- 3---- 2-- 2 2-- 2--------|
A|------ 5-------- 5---- 0---- 5--| 5---- 0-------- 0---------- 0--|
E| 3---------- 3------------------|------------ 0-------- 0--------|
Classical Guitar Tablature : http://classicalguitartablature.blogspot.com/
E|--------------------------------|--------------------------------|
B|---- 1-- 1-- 1-- 1 0-- 0--------| 3 3-- 3---- 3-- 3 1-- 1--------|
G|---- 2-- 2-- 2-- 0 0-- 0--------| 5 5-- 5---- 5-- 2 2-- 2--------|
D|---- 2-- 2-- 2-- 2 2-- 2--------| 3 3-- 3---- 3-- 2 2-- 2--------|
A| 0---------- 0-------- 2--------| 5---- 0---- 5-- 0---------- 0--|
E|------ 0-------- 0---------- 0--|---------------------- 0--------|
Classical Guitar Tablature : http://classicalguitartablature.blogspot.com/
E|--------------------------------|--------------------------------|
B|-- 0-- 0-------- 0--------------| 3------------------------------|
G| 5 5-- 5---- 5-- 2 2-- 2--------| 5-- 5-- 0-- 0-- 2--------------|
D| 5---------- 5-- 3 3-- 3--------| 3-- 3-- 2-- 2------ 2----------|
A|------ 5-------- 5---- 0---- 5--| 5-------------- 0---------- 0--|
E| 3---------- 3------------------|-------- 0------------ 0--------|
Classical Guitar Tablature : http://classicalguitartablature.blogspot.com/
E|-- 5 5 5-- 3 3------------------| 0------------------------------|
B|---------------- 6 5 3 3-- 5 6--| 1-------------------- 0 1-- 3--|
G|------------------ 4 4---- 4 4--| 2------------------ 2------ 2--|
D|-------------------- 3------ 3--|---------------- 2-- 2------ 2--|
A| 0------------ 0---- 5----------| 0-------- 0-- 0---------- 0----|
E|---- 0---------- 3---------- 3--|---- 0-------------- 0----------|
Classical Guitar Tablature : http://classicalguitartablature.blogspot.com/
E|--------------------------------|---------------------------- 0 3|
B|-- 1-- 0-- 1-- 5-- 3------------|---------------------- 0 1 3----|
G|-- 2-- 2-- 2-- 4-- 4---- 5 4-- 2|------------------ 1 2----------|
D|---- 2---- 2-- 5-- 5------------|--------------------------------|
A| 0---------- 0-------- 5--------| 0---------- 0-- 0---------- 0--|
E|---- 0---------- 3---------- 3--|------ 0-------------- 0--------|
Classical Guitar Tablature : http://classicalguitartablature.blogspot.com/
E|-------------------- 0---- 1-- 0|--------------------------------|
B| 6---- 5------ 3---------- 3----| 1-- 3---- 1-- 3---------- 3 5--|
G| 7---- 7-- 7---- 3-- 3---- 3----| 0-- 0---- 0---- 0-------- 0----|
D| 7---- 7-- 7---- 3--------------|---- 2---- 2---- 0-------- 0----|
A| 5-------- 5---- 1-------- 1----| 3-------- 3-------- 5----------|
E|------ 5------------ 1----------|---- 3---------- 3-------- 3----|
Classical Guitar Tablature : http://classicalguitartablature.blogspot.com/
E|---------------- 3-------- 1----| 0---- 0---- 1-- 0--------------|
B| 6-- 5---------- 3---- 3---- 3--| 1---- 1---- 1-- 1-- 1---- 1----|
G| 7-- 7------ 7-------- 3--------| 0---- 0-------- 0-- 0---- 0----|
D| 7-- 7------ 7------------------|-------------------- 2---- 2----|
A| 5---------- 5-- 1---------- 1--| 3---------- 3-- 3---------- 3--|
E|------ 5-------------- 1--------|------ 3-------------- 3--------|
Classical Guitar Tablature : http://classicalguitartablature.blogspot.com/
E|-------------------- 0---- 1-- 0|--------------------------------|
B| 6---- 5------ 3---------- 3----| 1-- 3---- 1-- 3---------- 3 5--|
G| 7---- 7-- 7---- 3-- 3---- 3----| 0-- 0---- 0---- 0-------- 0----|
D| 7---- 7-- 7---- 3--------------|---- 2---- 2---- 0-------- 0----|
A| 5-------- 5---- 1-------- 1----| 3-------- 3-------- 5----------|
E|------ 5------------ 1----------|---- 3---------- 3-------- 3----|
Classical Guitar Tablature : http://classicalguitartablature.blogspot.com/
E|-------------------- 0---- 1----| 0------------------------------|
B| 6-- 5-------- 3---------- 3----| 1------------------------------|
G| 7-- 7------ 7-- 3-- 3---- 3----| 0------------------------------|
D| 7-- 7------ 7-- 3--------------|---- 2---- 2-------- 2---- 2----|
A| 5---------- 5-- 1-------- 1----| 3---------- 3-- 3---------- 3--|
E|------ 5------------ 1----------|------ 3-------------- 3--------|
Classical Guitar Tablature : http://classicalguitartablature.blogspot.com/
E|--------------------------------|--------------------------------|
B|--------------------------------| 1 1-- 1---- 1-- 1 0-- 0--------|
G| 0-------------- 1---------- 1--| 2 2-- 2---- 2-- 0 0-- 0--------|
D| 2-------------------- 2--------| 2 2-- 2---- 2-- 2 2-- 2--------|
A| 3---------- 3-------- 2--------| 0---------- 0-------- 2--------|
E|------ 3-------- 0---------- 0--|------ 0-------- 0---------- 0--|
Classical Guitar Tablature : http://classicalguitartablature.blogspot.com/
E|--------------------------------|--------------------------------|
B| 3 3-- 3---- 3-- 3 1-- 1--------|-- 0-- 0-------- 0--------------|
G| 5 5-- 5---- 5-- 2 2-- 2--------| 5 5-- 5---- 5-- 2 2-- 2--------|
D| 3 3-- 3---- 3-- 2 2-- 2--------| 5---------- 5-- 3 3-- 3--------|
A| 5---- 0---- 5-- 0---------- 0--|------ 5-------- 5---- 0---- 5--|
E|---------------------- 0--------| 3---------- 3------------------|
Classical Guitar Tablature : http://classicalguitartablature.blogspot.com/
E|--------------------------------|--------------------------------|
B|------------ 0-- 1 0-- 1--------|---- 1-- 1-- 1-- 1 0-- 0--------|
G| 2 2-- 2-------- 2 2-- 2--------|---- 2-- 2-- 2-- 0 0-- 0--------|
D| 3 3-- 3---- 2-- 2 2-- 2--------|---- 2-- 2-- 2-- 2 2-- 2--------|
A| 5---- 0-------- 0---------- 0--| 0---------- 0-------- 2--------|
E|------------ 0-------- 0--------|------ 0-------- 0---------- 0--|
Classical Guitar Tablature : http://classicalguitartablature.blogspot.com/
E|--------------------------------|--------------------------------|
B| 3 3-- 3---- 3-- 3 1-- 1--------|-- 0-- 0-------- 0--------------|
G| 5 5-- 5---- 5-- 2 2-- 2--------| 5 5-- 5---- 5-- 2 2-- 2--------|
D| 3 3-- 3---- 3-- 2 2-- 2--------| 5---------- 5-- 3 3-- 3--------|
A| 5---- 0---- 5-- 0---------- 0--|------ 5-------- 5---- 0---- 5--|
E|---------------------- 0--------| 3---------- 3------------------|
Classical Guitar Tablature : http://classicalguitartablature.blogspot.com/
E|--------------------------------|--------------------------------|
B| 3------------------------------|--------------------------------|
G| 5-- 5-- 0-- 0-- 2--------------| 5-- 5---------- 0 0------ 0----|
D| 3-- 3-- 2-- 2------ 2----------| 7-- 7---- 7---- 0 0------ 0----|
A| 5-------------- 0---------- 0--|------------ 7-------- 2---- 5--|
E|-------- 0------------ 0--------| 5---- 8-------- 3--------------|
Classical Guitar Tablature : http://classicalguitartablature.blogspot.com/
E|--------------------------------|--------------------------------|
B|--------------------------------|--------------------------------|
G| 5-------- 5---- 5-- 5---- 5----| 5-- 5---------- 0 0------ 0----|
D| 7-- 7---- 7---- 7-- 7---- 7----| 7-- 7---- 7---- 0 0------ 0----|
A|------------ 7-------------- 7--|------------ 7-------- 2---- 5--|
E| 5---- 8-------- 5---- 8--------| 5---- 8-------- 3--------------|
Classical Guitar Tablature : http://classicalguitartablature.blogspot.com/
E|--------------------------------|--------------------------------|
B|-- 1----------------------------|--------------------------------|
G| 2------------------------------|--------------------------------|
D| 2------------------------------|--------------------------------|
A| 0------------------------------|--------------------------------|
E|--------------------------------|--------------------------------|
Classical Guitar Tablature : http://classicalguitartablature.blogspot.com/
0 com

Baby Elephant Walk - Henry Mancini

Henry Mancini's tune fingerstyle chord melody guitar intermediate arrangement played in the key of F.

Baby Elephant Walk - Henry Mancini - Intermediate ARRANGEMENT played in the key of F
Classical Guitar Tablature : http://classicalguitartablature.blogspot.com/
E|--------------------------------|--------------------------------|
B|--------------------------------|--------------------------------|
G|--------------------------------|--------------------------------|
D|--------------------------------|--------------------------------|
A|---------- 0---- 3-- 3------ 0--|------------ 0-- 3-- 3------ 0--|
E| 1-- 1-- 4-------------- 4------| 1-- 1-- 4-------------- 4------|
Classical Guitar Tablature : http://classicalguitartablature.blogspot.com/
E|--------------------------------|--------------------------------|
B|--------------------------------|--------------------------------|
G|-------- 2-------------- 0-- 0--|-------- 2-------------- 0-- 0--|
D|-------- 1-------------- 1-- 1--|-------- 1-------------- 1-- 1--|
A|------------ 0-- 3-- 3------ 0--|------------ 0-- 3-- 3------ 0--|
E| 1-- 1-- 4-------------- 4------| 1-- 1-- 4-------------- 4------|
Classical Guitar Tablature : http://classicalguitartablature.blogspot.com/
Classical Guitar Tablature : http://classicalguitartablature.blogspot.com/
E|--------------------------------|--------------------------------|
B|--------------------------------|--------------------------------|
G|-------- 2-------------- 0-- 0--|-------- 2-------------- 0-- 0--|
D|-------- 1-------------- 1-- 1--|-------- 1-------------- 1-- 1--|
A|------------ 0-- 3-- 3------ 0--|------------ 0-- 3-- 3------ 0--|
E| 1-- 1-- 4-------------- 4------| 1-- 1-- 4-------------- 4------|
Classical Guitar Tablature : http://classicalguitartablature.blogspot.com/
E|--------------------------------|--------------------------------|
B|-------- 3----------------------|-------- 3----------------------|
G|-------- 3-------------- 5-- 5--|-------- 3-------------- 5-- 5--|
D|-------- 3-------------- 6-- 6--|-------- 3-------------- 6-- 6--|
A| 1-- 1-- 4-- 5-- 8-- 8------ 5--| 1-- 1-- 4-- 5-- 8-- 8------ 5--|
E|------------------------ 9------|------------------------ 9------|
Classical Guitar Tablature : http://classicalguitartablature.blogspot.com/
E|--------------------------------|--------------------------------|
B|--------------------------------|--------------------------------|
G|-------- 2-------------- 0-- 0--|-------- 2-------------- 0-- 0--|
D|-------- 1-------------- 1-- 1--|-------- 1-------------- 1-- 1--|
A|------------ 0-- 3-- 3------ 0--|------------ 0-- 3-- 3------ 0--|
E| 1-- 1-- 4-------------- 4------| 1-- 1-- 4-------------- 4------|
Classical Guitar Tablature : http://classicalguitartablature.blogspot.com/
E|--------------------------------|--------------------------------|
B|-------- 5----------------------|-------- 3----------------------|
G|-------- 5----------------------|-------- 3-------------- 5-- 5--|
D|-------- 5----------------------|-------- 3-------------- 6-- 6--|
A| 3-- 3-- 6-- 7--10--10-- 6-- 7--| 1-- 1-- 4-- 5-- 8-- 8------ 5--|
E|--------------------------------|------------------------ 9------|
Classical Guitar Tablature : http://classicalguitartablature.blogspot.com/
E|--------------------------------|--------------------------------|
B|--------------------------------|--------------------------------|
G|-------- 2-------------- 0-- 0--|-------- 2-------------- 0-- 0--|
D|-------- 1-------------- 1-- 1--|-------- 1-------------- 1-- 1--|
A|------------ 0-- 3-- 3------ 0--|------------ 0-- 3-- 3------ 0--|
E| 1-- 1-- 4-------------- 4------| 1-- 1-- 4-------------- 4------|
Classical Guitar Tablature : http://classicalguitartablature.blogspot.com/
E|-------- 4-- 6-- 7 6---- 4------|--------------------------------|
B|---- 6---------------------- 6 4| 6------------------------------|
G|--------------------------------|-- 5---- 4-- 3-- 1--------------|
D|--------------------------------|-------------------- 3-- 1 1----|
A|--------------------------------|---------------------------- 3--|
E| 1------------------------------|--------------------------------|
Classical Guitar Tablature : http://classicalguitartablature.blogspot.com/
E|--------------------------------|---------------- 5-- 3----------|
B|--------------------------------|------------ 6---------- 6-- 3--|
G|--------------------------------|------ 2 5----------------------|
D|--------------------------------| 3------------------------------|
A| 2------------------------------|---------------- 3-- 3------ 0--|
E|---- 4-- 1----------------------| 1-- 1-- 4-- 5---------- 4------|
Classical Guitar Tablature : http://classicalguitartablature.blogspot.com/
E|--------------------------------|---------------- 5-- 3----------|
B| 0-- 1--------------------------|------------ 6---------- 6-- 3--|
G| 2-- 2--------------------------|------ 2 5----------------------|
D| 3-- 3--------------------------| 3------------------------------|
A|------------ 0-- 3-- 3----------|---------------- 3-- 3------ 0--|
E| 1-- 1-- 4-------------- 4-- 5--| 1-- 1-- 4-- 5---------- 4------|
Classical Guitar Tablature : http://classicalguitartablature.blogspot.com/
E|--------------------------------|--------------------------------|
B| 1---------------------- 3------|--------------------------------|
G| 2-------------------------- 1--|---------------------------- 7--|
D| 3-------------------------- 3--|---------------------------- 6--|
A|------------ 0-- 3-- 3------ 0--| 1-- 1-- 4-- 5-- 8-- 8-- 4-- 5--|
E| 1-- 1-- 4-------------- 4------|--------------------------------|
Classical Guitar Tablature : http://classicalguitartablature.blogspot.com/
E|--------------------------------|---------------- 5-- 3----------|
B|--------------------------------|------------ 6---------- 6-- 3--|
G| 1------------------------------|------ 2 5----------------------|
D|---- 3--------------------------| 3------------------------------|
A| 1-- 1-- 4-- 5-- 8-- 8-- 4-- 5--|---------------- 3-- 3------ 0--|
E|--------------------------------| 1-- 1-- 4-- 5---------- 4------|
Classical Guitar Tablature : http://classicalguitartablature.blogspot.com/
E|--------------------------------| 3------------------------------|
B| 0-- 1--------------------------| 5------ 8----------------------|
G| 2-- 2---------------------- 5--| 3------ 5------ 9--------------|
D| 3-- 3--------------------------|-------- 5----------10------10--|
A|------------ 0-- 3-- 3----------| 3-- 3-- 6-- 7--10--10----------|
E| 1-- 1-- 4-------------- 4-- 5--|------------------------11--12--|
Classical Guitar Tablature : http://classicalguitartablature.blogspot.com/
E| 1------------------------------|--------------------------------|
B| 3------ 6-------------------- 0|--------------------------------|
G| 1------ 3---- 8--10------------| 2------ 4------ 3 4 1----------|
D|-------- 3----------10 8---- 6--| 1------ 3-------------- 3---- 1|
A| 1-- 1-- 4-- 5-- 8-- 8-- 4-- 5--|---------- 0---- 3-- 3------ 3--|
E|--------------------------------| 1-- 1-- 4-------------- 4-- 5--|
Classical Guitar Tablature : http://classicalguitartablature.blogspot.com/
E|--------------------------------|--------------------------------|
B|--------------------------------|--------------------------------|
G|--------------------------------|-------- 1------ 3-- 1----------|
D|---- 3--------------------------| 3------ 3---- 3 3-- 3----------|
A|---------------- 3-- 3----------|--------------------------------|
E| 1-- 1-- 4-- 5---------- 4-- 5--| 1------------------------------|
Classical Guitar Tablature : http://classicalguitartablature.blogspot.com/
E|--------------------------------|--------------------------------|
B| 3------ 1------ 3-- 3-- 1------|--------------------------------|
G| 3------ 1 2---- 3-- 3-- 1 2----|-------- 1------ 3-- 3-- 1------|
D| 3------ 1------ 3-- 3-- 1------| 3------------ 3------------ 3--|
A|--------------------------------|--------------------------------|
E|--------------------------------| 1------------------------------|
Classical Guitar Tablature : http://classicalguitartablature.blogspot.com/
E|--------------------------------|--------------------------------|
B|------------------------ 3------|--------------------------------|
G| 1-------------------------- 1--|---------------------------- 7--|
D|---- 8---------------------- 3--|---------------------------- 6--|
A|---- 8-- 7-- 6-- 5-- 4-- 3-- 2--| 1-- 1-- 4-- 5-- 8-- 8-- 4-- 5--|
E|--------------------------------|--------------------------------|
Classical Guitar Tablature : http://classicalguitartablature.blogspot.com/
E|--------------------------------|---------------- 5-- 3----------|
B|--------------------------------|------------ 6---------- 6-- 3--|
G| 1------------------------------|------ 2 5----------------------|
D|---- 3--------------------------| 3------------------------------|
A| 1-- 1-- 4-- 5-- 8-- 8-- 4-- 5--|---------------- 3-- 3------ 0--|
E|--------------------------------| 1-- 1-- 4-- 5---------- 4------|
Classical Guitar Tablature : http://classicalguitartablature.blogspot.com/
E|--------------------------------| 3------------------------------|
B| 0-- 1--------------------------| 5------ 8----------------------|
G| 2-- 2---------------------- 5--| 3------ 5------ 9--------------|
D| 3-- 3--------------------------|-------- 5----------10------10--|
A|------------ 0-- 3-- 3----------| 3-- 3-- 6-- 7--10--10----------|
E| 1-- 1-- 4-------------- 4-- 5--|------------------------11--12--|
Classical Guitar Tablature : http://classicalguitartablature.blogspot.com/
E| 1------------------------------|--------------------------------|
B| 3------ 6-------------------- 0|--------------------------------|
G| 1------ 3---- 8--10------------| 2------ 4------ 3 4 1----------|
D|-------- 3----------10 8---- 6--| 1------ 3-------------- 3---- 1|
A| 1-- 1-- 4-- 5-- 8-- 8-- 4-- 5--|---------- 0---- 3-- 3------ 3--|
E|--------------------------------| 1-- 1-- 4-------------- 4-- 5--|
Classical Guitar Tablature : http://classicalguitartablature.blogspot.com/
E|--------------------------------|--------------------------------|
B|--------------------------------|--------------------------------|
G|--------------------------------|-------- 1------ 3-- 1----------|
D|---- 3--------------------------| 3------ 3---- 3 3-- 3----------|
A|---------------- 3-- 3----------|--------------------------------|
E| 1-- 1-- 4-- 5---------- 4-- 5--| 1------------------------------|
Classical Guitar Tablature : http://classicalguitartablature.blogspot.com/
E|--------------------------------|--------------------------------|
B| 3------ 1------ 3-- 3-- 1------|--------------------------------|
G| 3------ 1 2---- 3-- 3-- 1 2----|-------- 1------ 3-- 3-- 1------|
D| 3------ 1------ 3-- 3-- 1------| 3------------ 3------------ 3--|
A|--------------------------------|--------------------------------|
E|--------------------------------| 1------------------------------|
Classical Guitar Tablature : http://classicalguitartablature.blogspot.com/
E|--------------------------------|--------------------------------|
B|--------------------------------|------------------ 9------------|
G| 1------------------------------| 2---------------- 8------------|
D|---- 8--------------------------| 1-------------- 7--------------|
A|---- 8-- 7-- 6-- 5-- 4-- 5-- 6--|-------------- 8----------------|
E|--------------------------------| 1------------------------------|
Classical Guitar Tablature : http://classicalguitartablature.blogspot.com/
0 com

Flashdance - What A Feeling - Irene Cara

Irene Cara's tune fingerstyle chord melody guitar BASIC arrangement played in the key of G.
Classical Guitar Tablature : http://classicalguitartablature.blogspot.com/

Flashdance - What A Feeling - Irene Cara - BASIC ARRANGEMENT played in the key of G
Classical Guitar Tablature : http://classicalguitartablature.blogspot.com/
E|--------------------------------|--------------------------------|
B| 5------ 5---------- 5------ 5--|---- 5---- 5--------------------|
G| 5------ 5---------- 5------ 5--|---- 5---- 5--------------------|
D| 5------ 5---------- 5------ 5--|---- 5---- 5-------- 5---- 7----|
A| 5-------------- 5--------------| 5------------ 5----------------|
E|--------------------------------|--------------------------------|
Classical Guitar Tablature : http://classicalguitartablature.blogspot.com/
E|--------------------------------|--------------------------------|
B| 0---------- 0------------------|-------------------------- 0----|
G| 0---------- 0------ 2------ 0--| 2---------- 2---- 2------------|
D| 0---------- 0------------------| 4---------- 4------------------|
A|--------------------------------| 5---------- 5------------------|
E| 3---------- 3------------------|--------------------------------|
Classical Guitar Tablature : http://classicalguitartablature.blogspot.com/
E|--------------------------------|--------------------------------|
B| 1---------- 1------ 0----------| 0------------------------------|
G| 2---------- 2-------------- 2--| 0 2 0------ 0------ 2------ 0--|
D| 2---------- 2------------------| 2---------- 2------------------|
A| 0---------- 0------------------|--------------------------------|
E|--------------------------------| 0---------- 0------------------|
Classical Guitar Tablature : http://classicalguitartablature.blogspot.com/
E| 0---------- 0------------------|--------------------------------|
B| 1------------------ 3------ 1--| 3---------- 3------ 1---- 0----|
G| 0---------- 0------ 0----------| 0---------- 0------ 0---- 0----|
D|-------------------- 2------ 2--| 0---------- 0------ 0---- 0----|
A| 3---------- 3-------------- 3--|--------------------------------|
E|--------------------------------| 3---------- 3-------------- 3--|
Classical Guitar Tablature : http://classicalguitartablature.blogspot.com/
E|--------------------------------|--------------------------------|
B|--------------------------------|--------------------------------|
G| 2---------- 2------ 0------ 2--| 2---------- 2------ 0------ 2--|
D| 3---------- 3------------------| 4---------- 4------------------|
A|--------------------------------| 5---------- 5------------------|
E| 1---------- 1------------------|--------------------------------|
Classical Guitar Tablature : http://classicalguitartablature.blogspot.com/
E|--------------------------------|--------------------------------|
B| 0---------- 0------------------|-------------------------- 0----|
G| 0---------- 0------ 2------ 0--| 2---------- 2---- 2------------|
D| 0---------- 0------------------| 4---------- 4------------------|
A|--------------------------------| 5---------- 5------------------|
E| 3---------- 3------------------|--------------------------------|
Classical Guitar Tablature : http://classicalguitartablature.blogspot.com/
E|--------------------------------|--------------------------------|
B| 1---------- 1------ 0----------| 0------------------------------|
G| 2---------- 2-------------- 2--| 0 2 0------ 0------ 2------ 0--|
D| 2---------- 2------------------| 2---------- 2------------------|
A| 0---------- 0------------------|--------------------------------|
E|--------------------------------| 0---------- 0------------------|
Classical Guitar Tablature : http://classicalguitartablature.blogspot.com/
E| 0-------- 0------ 3------ 0----|------------------------------ 0|
B| 1---------- 1---- 1------------| 3---------- 3---- 0------ 3----|
G| 0---------- 0---- 0------ 0----| 0---------- 0---- 0------ 0-- 2|
D|--------------------------------| 0---------- 0---- 0------ 0----|
A| 3---------- 3------------ 3----|--------------------------------|
E|--------------------------------| 3---------- 3-------------- 3--|
Classical Guitar Tablature : http://classicalguitartablature.blogspot.com/
E|---------------------- 3--------|-- 7-------- 5---------------- 3|
B| 1-------- 3---------- 1--------|-- 5-------- 5---- 5---- 7---- 0|
G|---------- 2---------- 2--------|---- 5------ 5------------------|
D|---- 3---- 3--------------------|--------------------------------|
A|--------------------------------| 5---------- 5------------------|
E| 1---------- 1---------- 1------|--------------------------------|
Classical Guitar Tablature : http://classicalguitartablature.blogspot.com/
E|------ 3------------ 2-- 2------| 0-- 0 0------------ 2------ 5--|
B|------ 0------------ 3-- 3------| 1-- 1---------- 3---------- 0--|
G| 0---- 0------------ 2-- 2------| 0-- 0 0-------- 2-- 2------ 0--|
D|--------------------------------|---------------- 4--------------|
A|-------------------- 5----------| 3-------------- 5--------------|
E| 0------------------------------|---------------------------- 0--|
Classical Guitar Tablature : http://classicalguitartablature.blogspot.com/
E|---- 3-------------- 2-- 2------| 0-- 0 0------------ 2------ 3--|
B|---- 0-------------- 3-- 3------| 1-- 1---------- 3--------------|
G|---- 0-------------- 2-- 2------| 0-- 0 0-------- 2-- 2------ 0--|
D|--------------------------------|---------------- 4--------------|
A|-------------------- 5-- 5------| 3-------------- 5--------------|
E|--------------------------------|--------------------------------|
Classical Guitar Tablature : http://classicalguitartablature.blogspot.com/
E|---- 3------ 5-------------- 3--|---- 3---- 5--------------------|
B|---- 3------ 5------ 8-- 7-- 3--|---- 3------ 3------ 3------ 3--|
G|---- 0------ 5------ 5-- 5-- 2--|---- 2---- 5---------------- 5--|
D|-------------------- 5-- 5------|---------------------------- 5--|
A|---------------- 0--------------| 2------------ 3----------------|
E| 3------------------------------|--------------------------------|
Classical Guitar Tablature : http://classicalguitartablature.blogspot.com/
E|--------------------------------|---------------------- 2-- 5----|
B|-------- 3---------- 3------ 3--|---- 3---- 3------ 3-- 3-- 1----|
G|-------- 5---------- 5------ 5--|---- 5---- 5------ 2-- 2-- 2----|
D|-------- 5---------- 5------ 5--|---- 5---- 5------ 4------------|
A| 5-------------- 5--------------| 5-------------- 5--------------|
E|--------------------------------|------------------------------ 1|
Classical Guitar Tablature : http://classicalguitartablature.blogspot.com/
E|-- 3----------------------------|--------------------------------|
B|-- 1----------------------------|--------------------------------|
G|-- 2-------------- 2---- 2---- 2|-- 2-------------- 2---- 2------|
D|------------ 3------ 3-- 3---- 3|-- 3-------- 3---- 3---- 3------|
A|-------- 3----------------------|-------- 3----------------------|
E|-- 1---------------- 1-- 1---- 1|---- 1-------------- 1-- 1------|
Classical Guitar Tablature : http://classicalguitartablature.blogspot.com/
E|--------------------------------|--------------------------------|
B|--------------------------------|--------------------------------|
G| 7-- 7-------------- 7----------| 7-- 7-------------- 7----------|
D| 7-- 7-------------- 7----------| 7-- 7-------------- 7----------|
A| 5-- 5------ 5------ 5-- 5------| 5-- 5------ 5------ 5-- 5------|
E|-------- 3 5--------------------|-------- 3 5--------------------|
Classical Guitar Tablature : http://classicalguitartablature.blogspot.com/
E|--------------------------------|--------------------------------|
B|--------------------------------|--------------------------------|
G|------------------ 2---- 2---- 2|-- 2-------------- 2---- 2------|
D|------------ 3------ 3-- 3---- 3|-- 3-------- 3---- 3---- 3------|
A|-------- 3----------------------|-------- 3----------------------|
E| 1-- 1-------------- 1-- 1---- 1|---- 1-------------- 1-- 1------|
Classical Guitar Tablature : http://classicalguitartablature.blogspot.com/
E|--------------------------------|------------------------ 2------|
B|--------------------------------|-------------------- 3-- 3------|
G| 7-- 7-------------- 7----------| 7-- 7-------------- 2-- 2------|
D| 7-- 7-------------- 7----------| 7-- 7-------------- 4----------|
A| 5-- 5------ 5------ 5-- 5------| 5-- 5------ 5------ 5----------|
E|-------- 3 5--------------------|-------- 3 5--------------------|
Classical Guitar Tablature : http://classicalguitartablature.blogspot.com/
E| 3------ 3---------- 2-- 2------| 0-- 0 0------------ 2------ 5--|
B| 0------ 0---------- 3-- 3------| 1-- 1---------- 3---------- 0--|
G| 0------ 0---------- 2-- 2------| 0-- 0 0-------- 2-- 2------ 0--|
D|--------------------------------|---------------- 4--------------|
A|-------------------- 5----------| 3-------------- 5--------------|
E| 0------------------------------|---------------------------- 0--|
Classical Guitar Tablature : http://classicalguitartablature.blogspot.com/
E|---- 3-------------- 2-- 2------| 0-- 0 0------------ 2------ 3--|
B|---- 0-------------- 3-- 3------| 1-- 1---------- 3--------------|
G|---- 0-------------- 2-- 2------| 0-- 0 0-------- 2-- 2------ 0--|
D|--------------------------------|---------------- 4--------------|
A|-------------------- 5-- 5------| 3-------------- 5--------------|
E|--------------------------------|--------------------------------|
Classical Guitar Tablature : http://classicalguitartablature.blogspot.com/
E|---- 3------ 5-------------- 3--|---- 3---- 5--------------------|
B|---- 3------ 5------ 8-- 7-- 3--|---- 3------ 3------ 3------ 3--|
G|---- 0------ 5------ 5-- 5-- 2--|---- 2---- 5---------------- 5--|
D|-------------------- 5-- 5------|---------------------------- 5--|
A|---------------- 0--------------| 2------------ 3----------------|
E| 3------------------------------|--------------------------------|
Classical Guitar Tablature : http://classicalguitartablature.blogspot.com/
E|--------------------------------|---------------------- 2------ 3|
B|-------- 3---------- 3------ 3--|---- 3---- 3------ 3-- 3------ 0|
G|-------- 5---------- 5------ 5--|---- 5---- 5------ 2-- 2--------|
D|-------- 5---------- 5------ 5--|---- 5---- 5------ 4------------|
A| 5-------------- 5--------------| 5-------------- 5--------------|
E|--------------------------------|--------------------------------|
Classical Guitar Tablature : http://classicalguitartablature.blogspot.com/
E|------ 3------------ 2-- 2------| 0-- 0 0------------ 2------ 5--|
B|------ 0------------ 3-- 3------| 1-- 1---------- 3---------- 0--|
G| 0---- 0------------ 2-- 2------| 0-- 0 0-------- 2-- 2------ 0--|
D|--------------------------------|---------------- 4--------------|
A|-------------------- 5----------| 3-------------- 5--------------|
E| 0------------------------------|---------------------------- 0--|
Classical Guitar Tablature : http://classicalguitartablature.blogspot.com/
E|---- 3-------------- 2-- 2------| 0-- 0 0------------ 2------ 3--|
B|---- 0-------------- 3-- 3------| 1-- 1---------- 3--------------|
G|---- 0-------------- 2-- 2------| 0-- 0 0-------- 2-- 2------ 0--|
D|--------------------------------|---------------- 4--------------|
A|-------------------- 5-- 5------| 3-------------- 5--------------|
E|--------------------------------|--------------------------------|
Classical Guitar Tablature : http://classicalguitartablature.blogspot.com/
E|---- 3------ 5-------------- 3--|---- 3---- 5--------------------|
B|---- 3------ 5------ 8-- 7-- 3--|---- 3------ 3------ 3------ 3--|
G|---- 0------ 5------ 5-- 5-- 2--|---- 2---- 5---------------- 5--|
D|-------------------- 5-- 5------|---------------------------- 5--|
A|---------------- 0--------------| 2------------ 3----------------|
E| 3------------------------------|--------------------------------|
Classical Guitar Tablature : http://classicalguitartablature.blogspot.com/
E|--------------------------------|---------------------- 2------ 3|
B|-------- 3---------- 3------ 3--|---- 3---- 3------ 3-- 3------ 1|
G|-------- 5---------- 5------ 5--|---- 5---- 5------ 2-- 2------ 2|
D|-------- 5---------- 5------ 5--|---- 5---- 5------ 4------------|
A| 5-------------- 5--------------| 5-------------- 5--------------|
E|--------------------------------|------------------------------ 1|
Classical Guitar Tablature : http://classicalguitartablature.blogspot.com/
E|---- 3--------------------------|--------------------------------|
B|---- 1--------------------------|--------------------------------|
G|---- 2--------------------------|--------------------------------|
D|--------------------------------|--------------------------------|
A|--------------------------------|--------------------------------|
E|--------------------------------|--------------------------------|
Classical Guitar Tablature : http://classicalguitartablature.blogspot.com/