To celebrate the anniversary, I am giving you (finally...) : iPhone LickByNeck !!!!!!
0 com

Dancin' In The Moonlight-King Harvest

King Harvest's tune fingerstyle chord melody guitar BASIC arrangement played in the key of G.

Dancin' In the Moonlight - King Harvest - BASIC ARRANGEMENT played in the key of G
Classical Guitar Tablature : http://classicalguitartablature.blogspot.com/
E|------------ 7------ 7----------|------------------10------------|
B|-------- 5-- 5------ 5------10--|------------1012------1210------|
G|---- 5------ 5------ 5------11--|--------11------------------12--|
D| 7--------------------------10--|----10--------------------------|
A| 0------------------------------|--------------------------------|
E|--------------------------------|10--------------10--------------|
Classical Guitar Tablature : http://classicalguitartablature.blogspot.com/
E|---------- 5-------- 5------ 3--|--------------------------------|
B|------ 3---- 3------ 3------ 0--|------------ 0-------------- 0--|
G|---- 4-------------- 2------ 0--|-------- 0-------------- 0------|
D| 5------------------------------|---- 0-------------- 0----------|
A|--------------------------------|--------------------------------|
E| 3-------------- 2--------------| 0-------------- 0--------------|
Classical Guitar Tablature : http://classicalguitartablature.blogspot.com/
E|------------ 7------ 7----------|------------------10------------|
B|-------- 5-- 5------ 5------10--|------------1012------1210------|
G|---- 5------ 5------ 5------11--|--------11------------------12--|
D| 7--------------------------10--|----10--------------------------|
A| 0-------------- 0--------------|--------------------------------|
E|--------------------------------|10--------------10--------------|
Classical Guitar Tablature : http://classicalguitartablature.blogspot.com/
E|---------- 5-------- 5------ 3--|------ 0-------- 0-- 3----------|
B|------ 3---- 3------ 3------ 0--|------------ 3-------------- 0--|
G|---- 4-------------- 2------ 0--|---- 0------------------ 0------|
D| 5------------------------------|--------------------------------|
A|--------------------------------|--------------------------------|
E| 3-------------- 2--------------| 0-------------- 0--------------|
Classical Guitar Tablature : http://classicalguitartablature.blogspot.com/
E|--------------------------------|--------------------------------|
B|--------------------------------|---------------------------- 0--|
G|---- 2---- 2------ 0-- 2--------|-------- 2-- 0-- 2-- 0------ 0--|
D|---------- 2-------------- 2----|---- 4-------- 4-------- 4-- 0--|
A| 0------------ 0----------------| 5-------------- 5--------------|
E|--------------------------------|--------------------------------|
Classical Guitar Tablature : http://classicalguitartablature.blogspot.com/
E|---------------------------- 0--|-------- 0---- 0---- 3----------|
B|---- 3------ 3------ 3------ 0--|---- 3---- 3---- 0---------- 0--|
G|---- 0------ 2------ 2------ 0--|--------------------------------|
D|---- 0------ 0------ 0----------|--------------------------------|
A|--------------------------------|--------------------------------|
E| 3-------------- 2--------------| 0-------------- 0--------------|
Classical Guitar Tablature : http://classicalguitartablature.blogspot.com/
E|--------------------------------|--------------------------------|
B|--------------------------------|---------------------------- 0--|
G|---- 2---- 2------ 0-- 2--------|-------- 2-- 0-- 2-- 0------ 0--|
D|---------- 2-------------- 2----|---- 4-------- 4-------- 4-- 0--|
A| 0------------ 0----------------| 5-------------- 5--------------|
E|--------------------------------|--------------------------------|
Classical Guitar Tablature : http://classicalguitartablature.blogspot.com/
E|---------------------------- 0--|--------------------------------|
B|---- 3------ 3------ 3------ 0--|---- 3 0-------------------- 0--|
G|---- 0------ 2------ 2------ 0--|---------- 2---------- 0--------|
D|---- 0------ 0------ 0----------|------------------ 0------------|
A|--------------------------------|--------------------------------|
E| 3-------------- 2--------------| 0-------------- 0--------------|
Classical Guitar Tablature : http://classicalguitartablature.blogspot.com/
E|------------ 7------ 7----------|------------------10------------|
B|-------- 5-- 5------ 5------10--|------------1012------1210------|
G|---- 5------ 5------ 5------11--|--------11------------------12--|
D| 7--------------------------10--|----10--------------------------|
A| 0-------------- 0--------------|--------------------------------|
E|--------------------------------|10--------------10--------------|
Classical Guitar Tablature : http://classicalguitartablature.blogspot.com/
E|---------- 5-------- 5------ 3--|------ 0-------- 0-- 3----------|
B|------ 3---- 3------ 3------ 0--|------------ 3-------------- 0--|
G|---- 4-------------- 2------ 0--|---- 0------------------ 0------|
D| 5------------------------------|--------------------------------|
A|--------------------------------|--------------------------------|
E| 3-------------- 2--------------| 0-------------- 0--------------|
Classical Guitar Tablature : http://classicalguitartablature.blogspot.com/
E|--------------------------------|--------------------------------|
B|--------------------------------|---------------------------- 0--|
G|---- 2---- 2------ 0-- 2--------|-------- 2-- 0-- 2-- 0------ 0--|
D|---------- 2-------------- 2----|---- 4-------- 4-------- 4-- 0--|
A| 0------------ 0----------------| 5-------------- 5--------------|
E|--------------------------------|--------------------------------|
Classical Guitar Tablature : http://classicalguitartablature.blogspot.com/
E|---------------------------- 0--|-------- 0---- 0---- 3----------|
B|---- 3------ 3------ 3------ 0--|---- 3---- 3---- 0---------- 0--|
G|---- 0------ 2------ 2------ 0--|--------------------------------|
D|---- 0------ 0------ 0----------|--------------------------------|
A|--------------------------------|--------------------------------|
E| 3-------------- 2--------------| 0-------------- 0--------------|
Classical Guitar Tablature : http://classicalguitartablature.blogspot.com/
E|--------------------------------|--------------------------------|
B|--------------------------------|---------------------------- 0--|
G|---- 2---- 2------ 0-- 2--------|-------- 2-- 0-- 2-- 0------ 0--|
D|---------- 2-------------- 2----|---- 4-------- 4-------- 4-- 0--|
A| 0------------ 0----------------| 5-------------- 5--------------|
E|--------------------------------|--------------------------------|
Classical Guitar Tablature : http://classicalguitartablature.blogspot.com/
E|---------------------------- 0--|---------------------------- 7--|
B|---- 3------ 3------ 3------ 0--|---- 3-- 0------------------ 5--|
G|---- 0------ 2------ 2------ 0--|---------- 2 0-------- 0---- 5--|
D|---- 0------ 0------ 0----------|-------------------- 0----------|
A|--------------------------------|--------------------------------|
E| 3-------------- 2--------------| 0-------------- 0--------------|
Classical Guitar Tablature : http://classicalguitartablature.blogspot.com/
E|---- 5-- 5------------ 5-- 7----|---- 5---------- 5---------- 7--|
B|---- 5-- 5-- 8 8------ 5--------|---- 5------ 8-- 5-- 8------ 3--|
G|---- 5 5-- 5-- 5------ 5--------|---- 5------ 5-- 5-- 5------ 4--|
D|------------ 5------------------|------------ 5------ 5----------|
A| 0------------ 0-------------- 5|---------------- 5--------------|
E|--------------------------------|--------------------------------|
Classical Guitar Tablature : http://classicalguitartablature.blogspot.com/
E|---- 5------ 5------ 3------ 3--|---- 0------ 0------ 3------ 7--|
B|---- 3------ 3------ 3------ 0--|---- 0------ 0------ 0------ 5--|
G|---- 4------ 2------ 2------ 0--|---- 0------ 0------ 0------ 5--|
D|--------------------------------|--------------------------------|
A|--------------------------------|--------------------------------|
E| 3-------------- 2--------------| 0-------------- 0--------------|
Classical Guitar Tablature : http://classicalguitartablature.blogspot.com/
E|---- 5-- 5---- 5----------------|---- 5---------- 5---------- 7--|
B|---- 5-- 5-- 8-- 5---------- 5--|---- 5------ 8-- 5-- 8------ 3--|
G|---- 5-- 5-- 5 5-------- 5------|---- 5------ 5-- 5-- 5------ 4--|
D|------------ 5---- 5------------|------------ 5------ 5----------|
A| 0-------------- 0------------ 5|---------------- 5--------------|
E|--------------------------------|--------------------------------|
Classical Guitar Tablature : http://classicalguitartablature.blogspot.com/
E|---- 5------ 5------ 3------ 3--|---- 0------ 0------ 3------ 7--|
B|---- 3------ 3------ 3------ 0--|---- 0------ 0------ 0------ 5--|
G|---- 4------ 2------ 2------ 0--|---- 0------ 0------ 0------ 5--|
D|--------------------------------|--------------------------------|
A|--------------------------------|--------------------------------|
E| 3-------------- 2--------------| 0-------------- 0--------------|
Classical Guitar Tablature : http://classicalguitartablature.blogspot.com/
E|---- 5-- 5------------ 5-- 7----|---- 5---------- 5---------- 7--|
B|---- 5-- 5-- 8 8------ 5--------|---- 5------ 8-- 5-- 8------ 3--|
G|---- 5 5-- 5-- 5------ 5--------|---- 5------ 5-- 5-- 5------ 4--|
D|------------ 5------------------|------------ 5------ 5----------|
A| 0------------ 0-------------- 5|---------------- 5--------------|
E|--------------------------------|--------------------------------|
Classical Guitar Tablature : http://classicalguitartablature.blogspot.com/
E|---- 5------ 5------ 3------ 3--|---- 0------ 0------ 3------ 7--|
B|---- 3------ 3------ 3------ 0--|---- 0------ 0------ 0------ 5--|
G|---- 4------ 2------ 2------ 0--|---- 0------ 0------ 0------ 5--|
D|--------------------------------|--------------------------------|
A|--------------------------------|--------------------------------|
E| 3-------------- 2--------------| 0-------------- 0--------------|
Classical Guitar Tablature : http://classicalguitartablature.blogspot.com/
E|---- 5-- 5---- 5----------------|---- 5---------- 5---------- 7--|
B|---- 5-- 5-- 8-- 5---------- 5--|---- 5------ 8-- 5-- 8------ 3--|
G|---- 5-- 5-- 5 5-------- 5------|---- 5------ 5-- 5-- 5------ 4--|
D|------------ 5---- 5------------|------------ 5------ 5----------|
A| 0-------------- 0------------ 5|---------------- 5--------------|
E|--------------------------------|--------------------------------|
Classical Guitar Tablature : http://classicalguitartablature.blogspot.com/
E|---- 5------ 5------ 3------ 3--|---- 0--------------------------|
B|---- 3------ 3------ 3------ 0--|---------------------------- 0--|
G|---- 4------ 2------ 2------ 0--|------------ 0---------- 0------|
D|--------------------------------|-------- 0---------- 0----------|
A|--------------------------------|--------------------------------|
E| 3-------------- 2--------------| 0-------------- 0--------------|
Classical Guitar Tablature : http://classicalguitartablature.blogspot.com/
E|------------ 7------ 7----------|------------------10------------|
B|-------- 5-- 5------ 5------10--|------------1012------1210------|
G|---- 5------ 5------ 5------11--|--------11------------------12--|
D| 7--------------------------10--|----10--------------------------|
A| 0-------------- 0--------------|--------------------------------|
E|--------------------------------|10--------------10--------------|
Classical Guitar Tablature : http://classicalguitartablature.blogspot.com/
E|---------- 5-------- 5------ 3--|--------------------------------|
B|------ 3---- 3------ 3------ 0--|------------ 0-------------- 0--|
G|---- 4-------------- 2------ 0--|-------- 0-------------- 0------|
D| 5------------------------------|---- 0-------------- 0----------|
A|--------------------------------|--------------------------------|
E| 3-------------- 2--------------| 0-------------- 0--------------|
Classical Guitar Tablature : http://classicalguitartablature.blogspot.com/
E|------------ 7------ 7----------|------------------10------------|
B|-------- 5-- 5------ 5------10--|------------1012------1210------|
G|---- 5------ 5------ 5------11--|--------11------------------12--|
D| 7--------------------------10--|----10--------------------------|
A| 0-------------- 0--------------|--------------------------------|
E|--------------------------------|10--------------10--------------|
Classical Guitar Tablature : http://classicalguitartablature.blogspot.com/
E|---------- 5-------- 5------ 3--|---------- 3------------ 3------|
B|------ 3---- 3------ 3------ 3--|------------ 3---------- 3------|
G|---- 4-------------- 2------ 0--|------------ 2---------- 0------|
D| 5------------------------------|--------------------------------|
A|--------------------------------|--------------------------------|
E| 3-------------- 2--------------| 0---------- 2---------- 3------|
Classical Guitar Tablature : http://classicalguitartablature.blogspot.com/
0 com

You Don't Have To Say You Love Me

Dusty Springfield's tune fingerstyle chord melody guitar BASIC arrangement played in the key of Dm.

You Don't Have To Say You Love-Dusty Springfield - BASIC ARRANGEMENT played in the key of Dm
Classical Guitar Tablature : http://classicalguitartablature.blogspot.com/
E|---------------------- 5------ 6|---------- 5-- 3----------------|
B|---------- 5-- 6-------------- 3|---------- 3-- 3----------------|
G|------ 7---------------------- 3|------------ 3 3----------------|
D|--------------------------------|--------------------------------|
A|--------------------------------|--------------------------------|
E|--------------------------------|-------- 3-------------- 1------|
Classical Guitar Tablature : http://classicalguitartablature.blogspot.com/
E|----------------------10------12|--------------13----------------|
B|------ 8--10--11--------------10|--------------11----------------|
G|------ 7-- 7-- 7--------------12|--------------10----------------|
D|-- 8--------------------------11|--------------------------------|
A|--------------------------------|------ 0--------------10--------|
E| 0------------------------------|--------------------------------|
Classical Guitar Tablature : http://classicalguitartablature.blogspot.com/
E|13------------------------ 5-- 6|---------- 5-- 3------ 3--------|
B|10---------- 5 6-------------- 3|------ 3------------------------|
G|10-------- 7------------------ 3|---- 3------ 3------ 3----------|
D|--------------------------------|-- 3-------------- 3------------|
A|--------------------------------|-------------------------- 5 4--|
E|10------------------------------| 3------------ 3----------------|
Classical Guitar Tablature : http://classicalguitartablature.blogspot.com/
E|---------------- 0-------- 3----| 5------ 5----------------------|
B|-------- 1 1 3-- 1------ 1------| 5-------- 8---- 6------ 6------|
G|---- 0-------------- 0----------| 5-- 5---------- 5-- 5----------|
D|-- 2-------------- 2-------- 2--|-- 7-------- 7---- 7------------|
A| 3-------------- 3--------------| 8-------------- 8--------------|
E|--------------------------------|-------------------------- 8 5--|
Classical Guitar Tablature : http://classicalguitartablature.blogspot.com/
E|-------------------------- 1-- 3|------ 3-------------------- 1--|
B|-------- 3-- 1-- 3---- 3--------| 3-------- 6-- 5------ 5---- 3--|
G|---- 2---- 3 2-- 2-- 2----------|---- 3-------- 3---- 3------ 3--|
D|-- 3-------------- 3-------- 3--|-- 5-------- 5---- 5------------|
A| 1-------------- 1--------------|--------------------------------|
E|--------------------------------| 3------------ 3---------- 1----|
Classical Guitar Tablature : http://classicalguitartablature.blogspot.com/
E| 3---------- 1-- 0--------------| 0------------------------------|
B| 3------ 3------ 3------ 3-- 3--| 2------ 2------ 3---- 3------ 2|
G|---- 3---- 3-- 3---- 3---- 3----| 0-- 0---- 0-------- 0---- 0-- 0|
D|-- 2---------- 2-- 2------------|-- 2-------- 2---- 2-------- 2 2|
A|--------------------------------| 0-------------- 0--------------|
E| 0-------------- 0--------------|--------------------------------|
Classical Guitar Tablature : http://classicalguitartablature.blogspot.com/
E|-------------------------- 5-- 6|---------- 5-- 3------ 3--------|
B|------------ 5 6-------------- 3|------ 3------------------------|
G|---------- 7------------------ 3|---- 3------ 3------ 3----------|
D|--------------------------------|-- 3-------------- 3------------|
A| 0------------------------------|-------------------------- 5 4--|
E|--------------------------------| 3------------ 3----------------|
Classical Guitar Tablature : http://classicalguitartablature.blogspot.com/
E|---------------- 0-------- 3----| 5------ 5----------------------|
B|-------- 1 1 3-- 1------ 1------| 5-------- 8---- 6------ 6------|
G|---- 0-------------- 0----------| 5-- 5---------- 5-- 5----------|
D|-- 2-------------- 2-------- 2--|-- 7-------- 7---- 7------------|
A| 3-------------- 3--------------| 8-------------- 8--------------|
E|--------------------------------|-------------------------- 8 5--|
Classical Guitar Tablature : http://classicalguitartablature.blogspot.com/
E|-------------------------- 1-- 3|------ 3-------------------- 1--|
B|-------- 3-- 1-- 3---- 3--------| 3-------- 6-- 5------ 5---- 3--|
G|---- 2---- 3 2-- 2-- 2----------|---- 3-------- 3---- 3------ 3--|
D|-- 3-------------- 3-------- 3--|-- 5-------- 5---- 5------------|
A| 1-------------- 1--------------|--------------------------------|
E|--------------------------------| 3------------ 3---------- 1----|
Classical Guitar Tablature : http://classicalguitartablature.blogspot.com/
E|------------------------------ 5|--------------------------------|
B| 8---- 8---- 6-- 5---- 5-- 6 8 5|-------- 5-------------- 5------|
G| 7-- 7---------- 7-- 7-------- 6|---- 6-------------- 6---- 6----|
D|-- 8------ 8------ 8------------|-- 5------ 5------ 5-------- 5--|
A|------------------------------ 0|------------ 0-- 0--------------|
E| 0-------------- 0--------------|--------------------------------|
Classical Guitar Tablature : http://classicalguitartablature.blogspot.com/
E|---- 0---- 2---- 3-- 2-------- 0|---- 2---- 0 2------------------|
B| 3-- 3---- 3 3-- 3-- 3---- 5 3 0|---- 0---- 0 0-------- 2--------|
G| 2---------- 2-- 2---- 2-- 2 2 0|-- 0-- 0-- 0 0-- 2-- 2---- 2----|
D|-- 4---- 4---------------- 4 4--|------------------ 2-------- 2--|
A| 5-------------- 2--------------|---------------- 0--------------|
E|------------------------------ 0|--------------------------------|
Classical Guitar Tablature : http://classicalguitartablature.blogspot.com/
E|---------- 5---- 7--------------| 3-- 5---- 3 5-- 3---------- 2--|
B| 7-- 8------ 7-- 7--10---- 8 7--| 0-- 0---- 0 0-- 2------ 2------|
G| 6-- 6---------- 7-- 7----------| 0 0---- 0---------- 2----------|
D|-- 7---- 7-------- 7---- 7------|------------------ 2------ 2----|
A| 5------------------------------|---------------- 0--------------|
E|---------------- 7--------------| 0------------------------------|
Classical Guitar Tablature : http://classicalguitartablature.blogspot.com/
E| 5-------------- 5-- 2------ 2--| 7------------------------------|
B| 7-- 7------ 7-- 2-- 2---- 2----| 7-- 7---- 7---------- 7--------|
G| 6-- 6---- 6---- 2 2---- 2------| 7---------- 9 7---- 7---- 7 7--|
D|-- 7---- 7----------------------|-- 9---- 9-------- 9------------|
A| 5------------------------------|--------------------------------|
E|---------------- 2--------------| 7-------------- 7--------------|
Classical Guitar Tablature : http://classicalguitartablature.blogspot.com/
E|---- 0------ 2 3-- 3 5------ 7--| 5-- 5--------------------------|
B| 3---------- 2 0-- 0------ 0----| 2-------------- 2-- 2-- 5-- 5--|
G| 0---------- 2-- 0---- 0--------| 2------ 2-- 2------------------|
D|-- 0---- 0----------------------|-- 2------ 2------ 2------ 2----|
A|--------------------------------| 0------------------------------|
E| 3-------- 2---- 0--------------|--------------------------------|
Classical Guitar Tablature : http://classicalguitartablature.blogspot.com/
E|-------------------------- 5-- 6|---------- 5-- 3------ 3--------|
B| 6---------- 5 6-------------- 3|------ 3------------------------|
G| 7-------- 7------------------ 3|---- 3------ 3------ 3----------|
D| 7------------------------------|-- 3-------------- 3------------|
A| 5------------------------------|-------------------------- 5 4--|
E|--------------------------------| 3------------ 3----------------|
Classical Guitar Tablature : http://classicalguitartablature.blogspot.com/
E|---------------- 0-------- 3----| 5------ 5----------------------|
B|-------- 1 1 3-- 1------ 1------| 5-------- 8---- 6------ 6------|
G|---- 0-------------- 0----------| 5-- 5---------- 5-- 5----------|
D|-- 2-------------- 2-------- 2--|-- 7-------- 7---- 7------------|
A| 3-------------- 3--------------| 8-------------- 8--------------|
E|--------------------------------|-------------------------- 8 5--|
Classical Guitar Tablature : http://classicalguitartablature.blogspot.com/
E|-------------------------- 1-- 3|------ 3-------------------- 1--|
B|-------- 3-- 1-- 3---- 3--------| 3-------- 6-- 5------ 5---- 3--|
G|---- 2---- 3 2-- 2-- 2----------|---- 3-------- 3---- 3------ 3--|
D|-- 3-------------- 3-------- 3--|-- 5-------- 5---- 5------------|
A| 1-------------- 1--------------|--------------------------------|
E|--------------------------------| 3------------ 3---------- 1----|
Classical Guitar Tablature : http://classicalguitartablature.blogspot.com/
E|--------------------------------|--------------------------------|
B| 8------ 8-- 6-- 5---- 5---- 6--| 3------ 3-------------- 3------|
G| 7-- 7---------- 6-- 6----------| 5-- 5---- 5-------- 5---- 5----|
D|-- 8------ 8------ 5------ 5----|-- 3-------------- 3-------- 3--|
A|--------------------------------| 5---------- 5-- 5--------------|
E| 0-------------- 5--------------|--------------------------------|
Classical Guitar Tablature : http://classicalguitartablature.blogspot.com/
E|---- 0---- 2---- 3-- 2-------- 0|---- 2---- 0 2------------------|
B| 3-- 3---- 3 3-- 3-- 3---- 5 3 0|---- 0---- 0 0-------- 2--------|
G| 2---------- 2-- 2---- 2-- 2 2 0|-- 0-- 0-- 0 0-- 2-- 2---- 2----|
D|-- 4---- 4---------------- 4 4--|------------------ 2-------- 2--|
A| 5-------------- 2--------------|---------------- 0--------------|
E|------------------------------ 0|--------------------------------|
Classical Guitar Tablature : http://classicalguitartablature.blogspot.com/
E|---------- 5---- 7--------------| 3-- 5---- 3 5-- 3---------- 2--|
B| 7-- 8------ 7-- 7--10---- 8 7--| 0-- 0---- 0 0-- 2------ 2------|
G| 6-- 6---------- 7-- 7----------| 0 0---- 0---------- 2----------|
D|-- 7---- 7-------- 7---- 7------|------------------ 2------ 2----|
A| 5------------------------------|---------------- 0--------------|
E|---------------- 7--------------| 0------------------------------|
Classical Guitar Tablature : http://classicalguitartablature.blogspot.com/
E| 5------ 5----------------------| 5------ 5----------------------|
B| 7-------------- 5------ 5-- 7--| 7-------------- 5------ 5-- 7--|
G|---- 7------ 7-- 5-- 5----------|---- 7------ 7-- 5-- 5----------|
D|-- 7------ 7-- 5-- 5------ 5----|-- 7------ 7-- 5-- 5------ 5----|
A| 5-------------- 5--------------| 5-------------- 5--------------|
E|--------------------------------|--------------------------------|
Classical Guitar Tablature : http://classicalguitartablature.blogspot.com/
E| 5------ 5----------------------|--------------------------------|
B| 7---------------- 5-------- 5--|---------------- 7--------------|
G| 7-- 7-------- 7-------- 5------|---- 5---------- 7--------------|
D|-- 7------ 7---- 5-- 5----------| 5------------ 7----------------|
A| 5------------------------------|-------------- 5----------------|
E|--------------------------------|--------------------------------|
Classical Guitar Tablature : http://classicalguitartablature.blogspot.com/
0 com

Home-Michael Buble

Michael Buble's tune fingerstyle chord melody guitar BASIC arrangement played in the key of D.

Home - Michael Buble - BASIC ARRANGEMENT played in the key of D
Classical Guitar Tablature : http://classicalguitartablature.blogspot.com/
E|--------------------------------|--------------------------------|
B|---- 0--1210 8-- 7-- 5-- 3-- 2--| 0---------- 0-- 2---------- 2--|
G|---- 0-- 0 0 0------ 0-- 0------| 0------ 0------ 4------ 4------|
D|-- 0--12--11 9-- 7-- 5-- 4-- 2--| 0-- 0---------- 5-- 5----------|
A| 0------------------------------|--------------------------------|
E|--------------------------------|--------------------------------|
Classical Guitar Tablature : http://classicalguitartablature.blogspot.com/
E|------------ 2------------ 2----|--------------------------------|
B|-- 0 3 0 3 3-------- 3 3 3------|---- 0 0-- 3 3 3------ 0-- 3 3--|
G|-- 2 2 2 2 2------ 4-- 4--------|---- 2-------- 2---- 2----------|
D|-- 4 4 4------ 4------------ 2--|-- 0-------------- 0------------|
A| 5-------------- 4--------------| 2------------ 0----------------|
E|--------------------------------|--------------------------------|
Classical Guitar Tablature : http://classicalguitartablature.blogspot.com/
E|--------------------------------|--------------------------------|
B| 3------ 3---------- 0 0-- 3 3--| 3------ 3-------------- 0------|
G|------ 0-- 0 0---- 0------------| 2---- 2-------------- 0-- 0-- 0|
D|---- 0------ 0-- 0--------------| 4-- 4---- 4-------- 0------ 0--|
A|-------------- 0----------------| 5-------------- 0--------------|
E| 3------------------------------|------------ 2 3----------------|
Classical Guitar Tablature : http://classicalguitartablature.blogspot.com/
E|------------ 2------------ 2----|--------------------------------|
B|-- 0 3 0 3 3-------- 3 3 3------|---- 0 0-- 3 3 3------ 0-- 3 3--|
G|-- 2 2 2 2 2------ 4-- 4--------|---- 2-------- 2---- 2----------|
D|-- 4 4 4------ 4------------ 2--|-- 0-------------- 0------------|
A| 5-------------- 4--------------| 2------------ 0----------------|
E|--------------------------------|--------------------------------|
Classical Guitar Tablature : http://classicalguitartablature.blogspot.com/
E|--------------------------------|---------------------------- 5--|
B| 3------ 3---------- 0 0-- 3 3--| 3------ 3-------------- 5 7----|
G|------ 0-- 0 0---- 0------------| 2---- 2-- 2-- 2---- 5----------|
D|---- 0------ 0-- 0--------------|---- 4------ 4---- 5------------|
A|-------------- 0----------------| 5-------------- 0--------------|
E| 3------------------------------|--------------------------------|
Classical Guitar Tablature : http://classicalguitartablature.blogspot.com/
E| 7------------ 3-- 2-- 0--------|-- 5 2---------------------- 2 0|
B| 7--1010-- 8------ 3------ 3-- 5|------------ 5------ 5 3-- 5-- 0|
G| 7-- 7 7-- 7---------------- 0 2|---------- 2------ 2-- 2------ 1|
D|---- 7 7-- 7------------------ 0|-------- 4------ 4--------------|
A|10------10----------------------| 2---- 2------ 2------ 2--------|
E|---------------- 3------ 3------|--------------------------------|
Classical Guitar Tablature : http://classicalguitartablature.blogspot.com/
E|---- 0-------------------- 0 2--| 0---- 0--------------------10 9|
B|-- 3---------------- 3 3--------|---- 3-------- 0---- 0----------|
G|-------------------- 4 4--------| 0---------- 0---- 0------11-- 9|
D|-------- 0------ 4---- 4--------|-- 0------ 0---- 0------ 0------|
A|--------------------------------|-------------- 0------ 0--------|
E| 0------ 0 2 3 4-------- 4------| 3------ 3----------------------|
Classical Guitar Tablature : http://classicalguitartablature.blogspot.com/
E| 7------------ 3-- 2-- 0--------|-- 5 2---------------------- 2 0|
B| 7--1010-- 8------ 3------ 3-- 5|------------ 5------ 5 3-- 5-- 3|
G| 7-- 7 7-- 7---------------- 0 2|---------- 2------ 2-- 2--------|
D|---- 7 7-- 7------------------ 0|-------- 4------ 4--------------|
A|10------10----------------------| 2---- 2------ 2------ 2--------|
E|---------------- 3------ 3------|--------------------------------|
Classical Guitar Tablature : http://classicalguitartablature.blogspot.com/
E|------ 0------------------ 0 2--| 0-------------- 0--------------|
B|---- 3-------- 3------ 3 3------| 3---------- 3---------- 0------|
G| 0---------- 0------ 0-- 0------| 0---- 0-- 0---------- 0-- 0----|
D|---------- 2------ 0---- 0------|---- 2-- 2---------- 0------ 0--|
A| 3------ 3------ 2------ 2------| 1-------------- 0--------------|
E|--------------------------------|--------------------------------|
Classical Guitar Tablature : http://classicalguitartablature.blogspot.com/
E|--------------------------------|-- 5-------------- 5 2----------|
B|-------- 0------------ 3------ 5|-- 7 7 5 5-------- 2 2 5 5 3 3--|
G|---- 0---- 0-------- 0------ 2--|-- 6 6---- 7 7---- 2-- 2 2---- 2|
D|-- 0-------- 0---- 0------ 2----|---- 7-------- 7-------- 2------|
A| 0-------------- 2------ 4------| 5-------------- 4--------------|
E|--------------------------------|--------------------------------|
Classical Guitar Tablature : http://classicalguitartablature.blogspot.com/
E|-------- 7------ 5--------------|--------------------------------|
B|-- 710----1010-- 3-------- 3 3--| 3------ 3---------------- 3 3--|
G|-- 7------------ 2-- 2-- 4------|------ 0-- 0-- 0---- 0 4--------|
D|-- 7---------------- 4----------|---- 0------ 0---- 0------------|
A|---------------- 0--------------|---------------- 0--------------|
E| 7------------------------------| 3------------------------------|
Classical Guitar Tablature : http://classicalguitartablature.blogspot.com/
E|--------------------------------|-- 5-------------- 5 2----------|
B| 3------ 3-------------- 0------|-- 7 7 5 5-------- 2 2 5 5 3 3--|
G| 2---- 2-------------- 0-- 0-- 0|-- 6 6---- 7 7---- 2-- 2 2---- 2|
D|---- 4---- 4-------- 0------ 0--|---- 7-------- 7-------- 2------|
A| 5-------------- 0--------------| 5-------------- 4--------------|
E|------------ 2 3----------------|--------------------------------|
Classical Guitar Tablature : http://classicalguitartablature.blogspot.com/
E|-------- 7---- 7----------------|--------------------------------|
B|-- 710----1010 7----------------| 3------ 3---------------- 3 3 3|
G|-- 7---------- 7---- 7---- 7 7--|------ 0-- 0-- 0---- 0 4------ 2|
D|-- 7-------------- 7---- 9------|---- 0------ 0---- 0------------|
A|---------------- 0--------------|---------------- 0------------ 5|
E| 7------------------------------| 3------------------------------|
Classical Guitar Tablature : http://classicalguitartablature.blogspot.com/
E|---------------------- 2-- 5 5 7|--------------------------------|
B|------ 3----------------------10|--10--------10------ 8-- 7---- 3|
G|---- 2-------------- 0-------- 7|---- 7---- 7------ 9-------- 9 2|
D|---- 4---- 4-------- 0----------|------ 7---------- 7------------|
A|---------------- 0--------------|------------------------------ 2|
E|------------ 2 3--------------10|---------------- 9--------------|
Classical Guitar Tablature : http://classicalguitartablature.blogspot.com/
E|------------------------ 5 2----|-------- 5 2 0---------- 5 2 0--|
B|-------- 3------------ 3---- 5--| 3---- 3-------- 3---- 3--------|
G|------ 2-- 2-------- 2----------| 0-- 0---------- 0-- 0----------|
D|-- 4---------- 4-- 4------------|-- 0-------------- 0------------|
A|---------------- 0--------------|---------------- 0--------------|
E|--------------------------------| 3------------------------------|
Classical Guitar Tablature : http://classicalguitartablature.blogspot.com/
E|---------------------- 2-- 5 5 7|----------10 9-------------- 7--|
B| 3---- 3------------ 0-------- 7|--10--10--------10--------------|
G| 2---- 2 2-------- 0------------|---- 7---------- 9---- 9--------|
D|---- 4---------- 0--------------|-- 7-------------- 7---- 7------|
A| 5------------ 0----------------|--------------------------------|
E|---------- 2-- 3--------------10|---------------- 9--------------|
Classical Guitar Tablature : http://classicalguitartablature.blogspot.com/
E| 2---------------------------- 5|-- 2------------------ 5-- 2-- 0|
B| 3-------- 3--------------------|------ 5---- 3------ 3----------|
G| 2------ 2---------- 2----------|------------ 0---- 0------------|
D|---- 4-------------- 2----------|------------ 0-- 0--------------|
A| 2------------------------------|--------------------------------|
E|-------------- 0 1-- 2----------|------------ 3------------------|
Classical Guitar Tablature : http://classicalguitartablature.blogspot.com/
E|--------------------------------|--------------------------------|
B|-- 3------ 3------ 3---- 3------|---------------------- 3--------|
G|-------- 0---- 4----------------|---------------------- 0--------|
D|-- 0 0--------------------------|-------------------- 4----------|
A| 0------------------------------|-------------------- 5----------|
E|--------------------------------|--------------------------------|
Classical Guitar Tablature : http://classicalguitartablature.blogspot.com/
0 com

Radio Gaga-Queen

Queen's tune fingerstyle chord melody guitar BASIC arrangement played in the key of F.


Radio Gaga - Queen - BASIC ARRANGEMENT played in the key of F
Classical Guitar Tablature : http://classicalguitartablature.blogspot.com/
E|--------------------------------|--------------------------------|
B|--------------------------------|--------------------------------|
G|--------------------------------|--------------------------------|
D|---- 3-- 3----------------------|---- 3---- 3--------------------|
A|--------------------------------|--------------------------------|
E| 1 1-- 1 1-- 1 1 1------------ 1| 1 1-- 1 1-- 1 1 1--------------|
Classical Guitar Tablature : http://classicalguitartablature.blogspot.com/
E|--------------------------------|--------------------------------|
B| 1-- 3------ 1-------------- 1--| 1---- 3---- 1------ 1------ 3--|
G| 2-- 2------ 2------ 2------ 2--| 2---- 2---- 2------ 2------ 2--|
D| 3-- 3------ 3-------------- 3--| 3---- 3---- 3------ 3------ 3--|
A|--------------------------------|--------------------------------|
E| 1------ 1------ 1------ 1------| 1------ 1------ 1------ 1------|
Classical Guitar Tablature : http://classicalguitartablature.blogspot.com/
E|--------------------------------|---------------------------- 3--|
B| 3-- 5------ 3-------------- 3--| 3---- 5---- 3-------------- 3--|
G| 3-- 3------ 3------ 3------ 3--| 3-- 3------ 3-------------- 3--|
D| 5-- 5------ 5------ 5------ 5--| 5-- 5------ 5------ 5----------|
A|--------------------------------|--------------------------------|
E| 3------ 3------ 3------ 3------| 3------ 3------ 3------ 3------|
Classical Guitar Tablature : http://classicalguitartablature.blogspot.com/
E|--------------------------------|--------------------------------|
B| 8-- 6------ 6------ 6------ 8--| 8-- 6------ 6-------------- 6--|
G| 7-- 7------ 7------ 7------ 7--| 7-- 7------ 7------ 7------ 7--|
D| 8-- 8------ 8------ 8------ 8--| 8-- 8------ 8-------------- 8--|
A|--------------------------------|--------------------------------|
E| 6------ 6------ 6------ 6------| 6------ 6------ 6------ 6------|
Classical Guitar Tablature : http://classicalguitartablature.blogspot.com/
E|--------------------------------|--------------------------------|
B| 3------ 3-- 3------ 3------ 3--| 3---------- 1-- 1--------------|
G| 3------ 3-- 3------ 3------ 3--| 3---------- 2-- 2---------- 2--|
D| 5---------- 5------ 5------ 5--| 3---------- 3-- 3---------- 3--|
A|--------------------------------|--------------------------------|
E| 3------ 3------ 3------ 3------| 1------ 1------ 1------ 1------|
Classical Guitar Tablature : http://classicalguitartablature.blogspot.com/
E|--------------------------------|--------------------------------|
B| 3---------- 1-- 1---------- 1--| 1-- 3------ 1-------------- 1--|
G| 3---------- 2-- 2---------- 2--| 2-- 2------ 2------ 2------ 2--|
D| 3---------- 3-- 3---------- 3--| 3-- 3------ 3-------------- 3--|
A|--------------------------------|--------------------------------|
E| 1------ 1------ 1------ 1------| 1------ 1------ 1------ 1------|
Classical Guitar Tablature : http://classicalguitartablature.blogspot.com/
E|--------------------------------|--------------------------------|
B| 1---- 3---- 1------ 1------ 3--| 3-- 5------ 3-------------- 3--|
G| 2---- 2---- 2------ 2------ 2--| 3-- 3------ 3------ 3------ 3--|
D| 3---- 3---- 3------ 3------ 3--| 5-- 5------ 5------ 5------ 5--|
A|--------------------------------|--------------------------------|
E| 1------ 1------ 1------ 1------| 3------ 3------ 3------ 3------|
Classical Guitar Tablature : http://classicalguitartablature.blogspot.com/
E|---------------------------- 3--|--------------------------------|
B| 3---- 5---- 3-------------- 3--| 8-- 6------ 6------ 6------ 8--|
G| 3-- 3------ 3-------------- 3--| 7-- 7------ 7------ 7------ 7--|
D| 5-- 5------ 5------ 5----------| 8-- 8------ 8------ 8------ 8--|
A|--------------------------------|--------------------------------|
E| 3------ 3------ 3------ 3------| 6------ 6------ 6------ 6------|
Classical Guitar Tablature : http://classicalguitartablature.blogspot.com/
E|--------------------------------|--------------------------------|
B| 8-- 6------ 6-------------- 6--| 3------ 3-- 3------ 3------ 3--|
G| 7-- 7------ 7------ 7------ 7--| 3------ 3-- 3------ 3------ 3--|
D| 8-- 8------ 8-------------- 8--| 5---------- 5------ 5------ 5--|
A|--------------------------------|--------------------------------|
E| 6------ 6------ 6------ 6------| 3------ 3------ 3------ 3------|
Classical Guitar Tablature : http://classicalguitartablature.blogspot.com/
E|--------------------------------|---------------------------- 1--|
B| 3---------- 1-- 1--------------| 3---------- 1-- 1---------- 1--|
G| 3---------- 2-- 2---------- 2--| 3---------- 2-- 2---------- 2--|
D| 3---------- 3-- 3---------- 3--| 3---------- 3-- 3--------------|
A|--------------------------------|--------------------------------|
E| 1------ 1------ 1------ 1------| 1------ 1------ 1------ 1------|
Classical Guitar Tablature : http://classicalguitartablature.blogspot.com/
E| 1------ 3-- 1-------------- 1 1|------ 3---- 1-------------- 1--|
B| 1------ 1-- 1---------------- 1|------ 1---- 1-------------- 1--|
G| 2---------- 2-------------- 2--| 2------ 2-- 2-------------- 2--|
D|--------------------------------|--------------------------------|
A|--------------------------------|--------------------------------|
E| 1-- 1-- 1-- 1-- 1-- 1-- 1-- 1--| 1-- 1-- 1-- 1-- 1-- 1-- 1-- 1--|
Classical Guitar Tablature : http://classicalguitartablature.blogspot.com/
E|-------- 3----------------------|-------- 3------------------ 5--|
B| 6------ 6-- 6-------------- 6--| 6------ 6-- 6------------ 3----|
G| 5---------- 5------ 5------ 5--| 5------ 5-- 5------------------|
D| 3---------- 3------------------| 3---------- 3------------------|
A|--------------------------------|--------------------------------|
E| 4-- 4-- 4-- 4-- 4-- 4-- 4-- 4--| 4-- 4-- 4-- 4-- 4-- 4-- 4-- 4--|
Classical Guitar Tablature : http://classicalguitartablature.blogspot.com/
E| 5-------------------------- 5--| 5------------------------------|
B| 6------ 8 6---------------- 6--| 6---- 8-- 6-------------- 6----|
G|------ 7-- 7--------------------|------ 7-- 7-------------- 7----|
D|--------------------------------|--------------------------------|
A|--------------------------------|--------------------------------|
E| 6-- 6-- 6-- 6-- 6-- 6-- 6-- 6--| 6-- 6 6---- 6-- 6-- 6-- 6-- 6--|
Classical Guitar Tablature : http://classicalguitartablature.blogspot.com/
E|--------------------------------|--------------------------------|
B| 6------ 8-- 6-------------- 6--| 6------ 8-- 6------------------|
G| 7------ 7-- 7-------------- 7--| 7------ 7-- 7-------------- 5--|
D| 7------ 7-- 7-------------- 7--|------------ 7------------------|
A|--------------------------------|--------------------------------|
E| 7-- 7-- 7-- 7-- 7-- 7-- 7-- 7--| 7-- 7-- 7-- 7-- 7-- 7-- 7-- 7--|
Classical Guitar Tablature : http://classicalguitartablature.blogspot.com/
E|--------------------------------|--------------------------------|
B|10------11--10------------------|10------11--10------------------|
G|10------10--10------------------|10------10--10------------------|
D|10------10--10------------10----|10------10--10--------------10--|
A|--------------------------------|--------------------------------|
E| 8-- 8-- 8-- 8-- 8-- 8-- 8 8----| 8-- 8-- 8-- 8-- 8-- 8-- 8-- 8--|
Classical Guitar Tablature : http://classicalguitartablature.blogspot.com/
E|--------------------------------|--------------------------------|
B| 8------10-- 8------------------| 8------10-- 8------------------|
G| 9------ 9-- 9------------------| 9------ 9-- 9------------------|
D|10----------10--------------10--|10------10--10------------------|
A|--------------------------------|--------------------------------|
E| 8-- 8-- 8-- 8-- 8-- 8-- 8-- 8--| 8-- 8-- 8-- 8-- 8-- 8-- 8-- 8--|
Classical Guitar Tablature : http://classicalguitartablature.blogspot.com/
E|--------------------------------|--------------------------------|
B| 3---------- 1-- 1--------------|--------------------------------|
G| 3---------- 2-- 2---------- 2--| 3---------- 2-- 2--------------|
D| 3---------- 3-- 3------ 3------| 3---------- 3-- 3--------------|
A|--------------------------------|--------------------------------|
E| 1---------- 1-- 1--------------| 1---------- 1-- 1---------- 1--|
Classical Guitar Tablature : http://classicalguitartablature.blogspot.com/
E|------ 3------------------------|------------ 1------------------|
B| 6---------- 6------------------| 6-- 6-- 8-- 1------ 1----------|
G| 5---------- 5------ 5----------| 7-- 7-- 7-- 2------ 2----------|
D|--------------------------------| 8-- 8-- 8---------- 3----------|
A| 6---------- 6------------------|--------------------------------|
E|--------------------------------| 6---------- 1------------------|
Classical Guitar Tablature : http://classicalguitartablature.blogspot.com/
E|------------ 1------------------|------------ 1------------------|
B| 6-- 6-- 8-- 1------ 1----------| 6-- 6-- 8-- 1------ 1----------|
G| 7-- 7-- 7-- 2------ 2----------| 7-- 7-- 7-- 2------ 2----------|
D| 8-- 8-- 8---------- 3----------| 8-- 8-- 8---------- 3----------|
A|--------------------------------|--------------------------------|
E| 6---------- 1------------------| 6---------- 1------------------|
Classical Guitar Tablature : http://classicalguitartablature.blogspot.com/
E|------ 3------------------------|------------ 1------------------|
B| 6---------- 6------------------| 6-- 6-- 8-- 1------ 1----------|
G| 5---------- 5------ 5----------| 7-- 7-- 7-- 2------ 2----------|
D|--------------------------------| 8-- 8-- 8---------- 3----------|
A| 6---------- 6------------------|--------------------------------|
E|--------------------------------| 6---------- 1------------------|
Classical Guitar Tablature : http://classicalguitartablature.blogspot.com/
E|------------ 1------------------|--------------------------------|
B| 6-- 6-- 8-- 1------ 1----------|---------------------------- 3--|
G| 7-- 7-- 7-- 2------ 2----------|------------ 3------ 5----------|
D| 8-- 8-- 8---------- 3----------| 5------ 7----------------------|
A|--------------------------------| 6-------------- 6--------------|
E| 6---------- 1------------------|--------------------------------|
Classical Guitar Tablature : http://classicalguitartablature.blogspot.com/
E|--------------------------------|--------------------------------|
B|------------ 3-------------- 1--|-------- 5-- 6-------------- 6--|
G|-------- 3-------------- 0------| 7---------------------- 7------|
D|---- 3-------------- 2----------| 7------------------ 7----------|
A| 1-------------- 3--------------| 5-------------- 5--------------|
E|--------------------------------|--------------------------------|
Classical Guitar Tablature : http://classicalguitartablature.blogspot.com/
E| 1---------- 1 0------------ 0--|---------------- 0---------- 0--|
B| 1-------------- 1--------------| 3-------- 3-- 1----------------|
G| 0------ 0-------------- 0------|-------- 0-------------- 0------|
D|---- 2------------ 2------------|---- 2-------------- 2----------|
A| 3-------------- 3--------------| 3------------ 3----------------|
E|--------------------------------|------------------------------ 1|
Classical Guitar Tablature : http://classicalguitartablature.blogspot.com/
E|-- 1----------------------------|--------------------------------|
B| 1------------------------------|--------------------------------|
G| 2------------------------------|--------------------------------|
D|--------------------------------|---- 3---- 3--------------------|
A|--------------------------------|--------------------------------|
E|------------------------------ 1| 1 1-- 1 1-- 1 1 1------------ 1|
Classical Guitar Tablature : http://classicalguitartablature.blogspot.com/
E|--------------------------------|--------------------------------|
B|--------------------------------|--------------------------------|
G|--------------------------------|--------------------------------|
D|---- 3---- 3--------------------|---- 3---- 3--------------------|
A|--------------------------------|--------------------------------|
E| 1 1-- 1 1-- 1 1 1------------ 1| 1 1-- 1 1-- 1 1 1------------ 1|
Classical Guitar Tablature : http://classicalguitartablature.blogspot.com/
E|--------------------------------|--------------------------------|
B|--------------------------------|--------------------------------|
G|--------------------------------|--------------------------------|
D|---- 3---- 3--------------------|--------------------------------|
A|--------------------------------|--------------------------------|
E| 1 1-- 1 1-- 1 1 1--------------|--------------------------------|
Classical Guitar Tablature : http://classicalguitartablature.blogspot.com/
0 com

Love Song-The Cure

The Cure's tune fingerstyle chord melody guitar BASIC arrangement played in the key of Am.

Love Song-The Cure - BASIC ARRANGEMENT played in the key of Am
Classical Guitar Tablature : http://classicalguitartablature.blogspot.com/
E|--------------------------------|--------------------------------|
B| 1------------ 1----------------|--------------------------------|
G| 2-------------- 2--------------|---- 0--------------------------|
D| 2-------------- 2--------------|---- 0--------------------------|
A| 0------ 0-- 0-- 0-- 2-- 3------|---------------- 0-- 0-- 2------|
E|---------------------------- 3--|---- 3------ 3------------------|
Classical Guitar Tablature : http://classicalguitartablature.blogspot.com/
E|--------------------------------|--------------------------------|
B|--------------------------------|--------------------------------|
G|-------- 2----------------------|---- 0--------------------------|
D|-------- 3----------------------|---- 2--------------------------|
A|---------------- 3-- 2-- 0------|---------------- 2-- 2-- 3------|
E| 1------ 1-- 1-------------- 0--|---- 0------ 0------------------|
Classical Guitar Tablature : http://classicalguitartablature.blogspot.com/
E|--------------------------------|--------------------------------|
B| 1------------------------------|--------------------------------|
G| 2-------------- 2--------------|---- 0--------------------------|
D| 2-------------- 2--------------|---- 0--------------------------|
A| 0------ 0-- 0-- 0-- 2-- 3------|---------------- 0-- 0-- 2------|
E|---------------------------- 3--|---- 3------ 3------------------|
Classical Guitar Tablature : http://classicalguitartablature.blogspot.com/
E|--------------------------------|--------------------------------|
B|--------------------------------|--------------------------------|
G|-------- 2----------------------|---- 0--------------------------|
D|-------- 3----------------------|---- 2--------------------------|
A|---------------- 3-- 2-- 0------|---------------- 2-- 2-- 3------|
E| 1------ 1-- 1-------------- 0--|---- 0------ 0------------------|
Classical Guitar Tablature : http://classicalguitartablature.blogspot.com/
E|--------------------------------|--------------------------------|
B|---------------- 1-- 0---- 0----|---------- 0-------- 1------ 1--|
G|------------ 2---------- 2-- 0--|-- 2------------------------ 2--|
D|-------- 2----------------------|---------------------------- 3--|
A| 0-------------- 0--------------|--------------------------------|
E|---------------------------- 3--|---------------- 3--------------|
Classical Guitar Tablature : http://classicalguitartablature.blogspot.com/
E|--------------------------------|--------------------------------|
B|--------------------------------|--------------------------------|
G|-------- 2-- 2------------------|--------------------------------|
D|--------------------------------|-- 2----------------------------|
A|---------------- 3-- 2-- 0---- 2|-------------- 2-------- 3------|
E| 1-------------------------- 0--|------------ 0------------------|
Classical Guitar Tablature : http://classicalguitartablature.blogspot.com/
E|--------------------------------|--------------------------------|
B|---------------- 1-- 0---- 0----|---------- 0-------- 1------ 1--|
G|------------ 2---------- 2-- 0--|-- 2------------------------ 2--|
D|-------- 2----------------------|---------------------------- 3--|
A| 0-------------- 0--------------|--------------------------------|
E|---------------------------- 3--|---------------- 3--------------|
Classical Guitar Tablature : http://classicalguitartablature.blogspot.com/
E|--------------------------------|--------------------------------|
B|--------------------------------|--------------------------------|
G|-------- 2-- 2------------------|--------------------------------|
D|--------------------------------|-- 2----------------------------|
A|---------------- 3-- 2-- 0---- 2|-------------- 2-------- 3------|
E| 1-------------------------- 0--|------------ 0------------------|
Classical Guitar Tablature : http://classicalguitartablature.blogspot.com/
E|--------------------------------|--------------------------------|
B|---------------- 1-- 0---- 0----|---------- 0-------- 1------ 1--|
G|------------ 2---------- 2-- 0--|-- 2------------------------ 2--|
D|-------- 2----------------------|---------------------------- 3--|
A| 0-------------- 0--------------|--------------------------------|
E|---------------------------- 3--|---------------- 3--------------|
Classical Guitar Tablature : http://classicalguitartablature.blogspot.com/
E|--------------------------------|--------------------------------|
B|--------------------------------|--------------------------------|
G|-------- 2-- 2------------------|--------------------------------|
D|--------------------------------|-- 2----------------------------|
A|---------------- 3-- 2-- 0---- 2|-------------- 2-------- 3------|
E| 1-------------------------- 0--|------------ 0------------------|
Classical Guitar Tablature : http://classicalguitartablature.blogspot.com/
E|--------------------------------|---------------------------- 0--|
B|---------------- 1-- 0---- 0----|---------- 0-------- 1------ 1--|
G|------------ 2---------- 2-- 0--|-- 2------------------------ 2--|
D|-------- 2----------------------|--------------------------------|
A| 0-------------- 0--------------|--------------------------------|
E|---------------------------- 3--|---------------- 3--------------|
Classical Guitar Tablature : http://classicalguitartablature.blogspot.com/
E|--------------------------------|--------------------------------|
B|--------------------------------|--------------------------------|
G|-------- 2-- 2------------------|---- 0--------------------------|
D|-------- 3-- 3------------------|---- 2--------------------------|
A|---------------- 3-- 2-- 0-- 2--|---------------- 2------ 3------|
E| 1-------------------------- 0--|------------ 0------------------|
Classical Guitar Tablature : http://classicalguitartablature.blogspot.com/
E| 8-- 8-- 7-- 5 7---- 7-- 5------| 0---------- 0------------ 5 7--|
B| 5-- 5-- 5-- 5-- 5-- 5 5---- 8--| 0---------- 0-------- 0--------|
G| 5-- 5-- 5-- 5-- 5-- 5-- 5-- 5--| 0---------- 0------ 0----------|
D|---------------------------- 5--|--------------------------------|
A| 0-------------- 0--------------|--------------------------------|
E|--------------------------------| 3---------- 3------------------|
Classical Guitar Tablature : http://classicalguitartablature.blogspot.com/
E| 8-- 8-- 7 5-- 7-- 7---- 5------| 0---------- 0------------ 5 7--|
B| 5-- 5-- 5---- 5-- 5---- 5-- 8--| 0-- 0------ 0-------- 0--------|
G| 5-- 5-- 5 5---- 5 5---- 5-- 5--| 0-- 0------ 0---- 0------------|
D|---------------------------- 5--|--------------------------------|
A| 8-------------- 8--------------|--------------------------------|
E|--------------------------------| 0---------- 0------------------|
Classical Guitar Tablature : http://classicalguitartablature.blogspot.com/
E| 8-- 8-- 7-- 5 7---- 7-- 5------|--------------------------------|
B| 5-- 5-- 5-- 5-- 5-- 5 5---- 8--| 5---------- 5------ 3------ 1--|
G| 5-- 5-- 5-- 5-- 5-- 5-- 5-- 5--| 4---------- 4------ 4------ 2--|
D|---------------------------- 5--| 5---------- 5------ 5------ 3--|
A| 0-------------- 0--------------|--------------------------------|
E|--------------------------------| 3---------- 3------------------|
Classical Guitar Tablature : http://classicalguitartablature.blogspot.com/
E|--------------------------------|--------------------------------|
B|---------- 1--------------------|--------------------------------|
G|------------ 2------------------|---------------------------- 2--|
D|------------ 3------------------|-- 2----------------------------|
A|---------------- 3-- 2-- 0-- 2--|---------------- 2-- 2-- 3------|
E| 1-------------------------- 0--|---------- 0--------------------|
Classical Guitar Tablature : http://classicalguitartablature.blogspot.com/
E|---------------- 0--------------|------------ 3------------------|
B|---- 0 1---- 3-- 3--------------|-------------------- 1----------|
G| 2-------------- 2--------------|-------- 0----------------------|
D| 2---------------------- 2------|---- 0---------------------- 0--|
A| 0-------------- 0--------------|--------------------------------|
E|---------------------------- 3--|---------------- 3--------------|
Classical Guitar Tablature : http://classicalguitartablature.blogspot.com/
E|--------------------------------|--------------------------------|
B|--------------------------------|--------------------------------|
G|-------- 2----------------------|---- 0--------------------------|
D|-------- 3----------------------|---- 2--------------------------|
A|---------------- 3-- 2-- 0------|---------------- 2-- 2-- 3------|
E| 1------ 1-- 1-------------- 0--|---- 0------ 0------------------|
Classical Guitar Tablature : http://classicalguitartablature.blogspot.com/
E|---------- 0--------------------|------------------ 0-------- 0--|
B|---------- 1---- 3-- 1------ 3--|-- 1------ 3---------------- 1--|
G|------------ 2-- 2-- 2------ 0--|-- 0------ 0---------------- 2--|
D|-------------------- 2----------|-- 0------ 0--------------------|
A| 0------ 0-- 0-- 0-- 0----------|--------------------------------|
E|---------------------------- 3--|------------ 3------------------|
Classical Guitar Tablature : http://classicalguitartablature.blogspot.com/
E|--------------------------------|--------------------------------|
B|--------------------------------|--------------------------------|
G|------------ 2------------------|---------------------------- 2--|
D|------------ 3------------------|-- 2----------------------------|
A|---------------- 3-- 2-- 0---- 2|-------------- 2-------- 3------|
E| 1------ 1-- 1-------------- 0--|---------- 0--------------------|
Classical Guitar Tablature : http://classicalguitartablature.blogspot.com/
E|---------------- 0--------------|------------ 3------------------|
B|---- 0 1---- 3-- 3--------------|-------------------- 1----------|
G| 2-------------- 2--------------|-------- 0----------------------|
D| 2---------------------- 2------|---- 0---------------------- 0--|
A| 0-------------- 0--------------|--------------------------------|
E|---------------------------- 3--|---------------- 3--------------|
Classical Guitar Tablature : http://classicalguitartablature.blogspot.com/
E|--------------------------------|--------------------------------|
B|--------------------------------|--------------------------------|
G|-------- 2----------------------|---- 0--------------------------|
D|-------- 3----------------------|---- 2--------------------------|
A|---------------- 3-- 2-- 0------|---------------- 2-- 2-- 3------|
E| 1------ 1-- 1-------------- 0--|---- 0------ 0------------------|
Classical Guitar Tablature : http://classicalguitartablature.blogspot.com/
E|---------- 0--------------------|------------------ 0-------- 0--|
B|---------- 1---- 3-- 1------ 3--|-- 1------ 3---------------- 1--|
G|------------ 2-- 2-- 2------ 0--|-- 0------ 0---------------- 2--|
D|-------------------- 2----------|-- 0------ 0--------------------|
A| 0------ 0-- 0-- 0-- 0----------|--------------------------------|
E|---------------------------- 3--|------------ 3------------------|
Classical Guitar Tablature : http://classicalguitartablature.blogspot.com/
E|--------------------------------|--------------------------------|
B|--------------------------------|--------------------------------|
G|------------ 2------------------|---------------------------- 2--|
D|------------ 3------------------|-- 2----------------------------|
A|---------------- 3-- 2-- 0---- 2|-------------- 2-------- 3------|
E| 1------ 1-- 1-------------- 0--|---------- 0--------------------|
Classical Guitar Tablature : http://classicalguitartablature.blogspot.com/
E|--------------------------------|--------------------------------|
B|------------ 1------ 1------ 1--|-- 0-------- 0-------------- 0--|
G|-------- 2-- 2------ 2------ 0--|---- 0------ 0-------- 0--------|
D|---- 3---------------------- 0--|---- 0------ 0------ 0----------|
A|--------------------------------|--------------------------------|
E| 1-------------- 1--------------| 3-------------- 3--------------|
Classical Guitar Tablature : http://classicalguitartablature.blogspot.com/
E|--------------------------------|--------------------------------|
B|------------ 1------ 1------ 3--|---- 1------ 0------------------|
G|-------- 2---------- 2------ 0--|---- 0-------------- 2------ 2--|
D|---- 2-------------- 2------ 2--|---- 2------------------ 2------|
A| 0------------------------------| 3-------------- 3--------------|
E|--------------------------------|--------------------------------|
Classical Guitar Tablature : http://classicalguitartablature.blogspot.com/
E|--------------------------------|--------------------------------|
B|------------ 1------ 1------ 1--|-- 0-------- 0-------------- 0--|
G|-------- 2-- 2------ 2------ 0--|---- 0------ 0-------- 0--------|
D|---- 3---------------------- 0--|---- 0------ 0------ 0----------|
A|--------------------------------|--------------------------------|
E| 1-------------- 1--------------| 3-------------- 3--------------|
Classical Guitar Tablature : http://classicalguitartablature.blogspot.com/
E|--------------------------------|--------------------------------|
B|------------ 1------ 1------ 3--|---- 1------ 0------------------|
G|-------- 2---------- 2------ 0--|---- 0-------------- 2------ 2--|
D|---- 2-------------- 2------ 2--|---- 2------------------ 2------|
A| 0------------------------------| 3-------------- 3--------------|
E|--------------------------------|--------------------------------|
Classical Guitar Tablature : http://classicalguitartablature.blogspot.com/
E|------------ 0------ 0------ 0--|--------------------------------|
B|------------ 1------ 1------ 0--|---- 3------ 3-------------- 3--|
G|-------- 2-- 2------ 2------ 0--|---- 0------ 0---------- 0------|
D|---- 3--------------------------|---- 0-------------- 0----------|
A|--------------------------------|--------------------------------|
E| 1-------------- 1--------------| 3-------------- 3--------------|
Classical Guitar Tablature : http://classicalguitartablature.blogspot.com/
E|------------ 0------ 0------ 1--|---- 0--------------------------|
B|-------- 1-- 1------ 1------ 1--|---- 1------ 3------ 1----------|
G|-------- 2-- 2------ 2------ 2--|---- 0------ 0------ 0------ 0--|
D|---- 2--------------------------|------------ 2---------- 2------|
A| 0-------------- 0--------------| 3------------------------------|
E|--------------------------------|--------------------------------|
Classical Guitar Tablature : http://classicalguitartablature.blogspot.com/
E|--------------------------------|---------------------------- 7--|
B|------------ 1------ 1------ 3--|---- 1------ 0------------------|
G|-------- 2-- 2------ 2------ 0--|---- 0-------------- 2----------|
D|---- 3------ 3------ 3------ 0--|---- 0--------------------------|
A|--------------------------------|--------------------------------|
E| 1-------------- 1--------------| 3-------------- 3--------------|
Classical Guitar Tablature : http://classicalguitartablature.blogspot.com/
E| 7------------------ 7------ 7--|---- 3------------ 7-- 7-- 7-- 7|
B| 8------ 8------------------ 3--|---- 3--------------------------|
G| 5-------------- 5---------- 5--|------------ 5------------------|
D|--------------------------------|--------------------------------|
A| 0-------------- 0--------------|------------------------------ 8|
E|--------------------------------| 3-------------- 3--------------|
Classical Guitar Tablature : http://classicalguitartablature.blogspot.com/
E|-------------------- 7-- 7 7----| 8--10-------------- 7-- 7-- 7--|
B|-------- 8----------------------| 8---------- 8------------------|
G|-------------- 5----------------| 7------------------------------|
D|--------------------------------|--------------------------------|
A|---------------- 8--------------|--------------------------------|
E|--------------------------------| 0-------------- 0--------------|
Classical Guitar Tablature : http://classicalguitartablature.blogspot.com/
E| 7------------------ 7------ 7--|---- 3------------ 7-- 7-- 7-- 7|
B| 8------ 8------------------ 3--|---- 3--------------------------|
G| 5-------------- 5---------- 5--|------------ 5------------------|
D|--------------------------------|--------------------------------|
A| 0-------------- 0--------------|------------------------------ 8|
E|--------------------------------| 3-------------- 3--------------|
Classical Guitar Tablature : http://classicalguitartablature.blogspot.com/
E|-------------------- 7-- 7 7----| 8--10-------------- 7-- 7-- 7--|
B|-------- 8----------------------| 8---------- 8------------------|
G|-------------- 5----------------| 7------------------------------|
D|--------------------------------|--------------------------------|
A|---------------- 8--------------|--------------------------------|
E|--------------------------------| 0-------------- 0--------------|
Classical Guitar Tablature : http://classicalguitartablature.blogspot.com/
E| 8-- 8-- 7-- 5 7---- 7-- 5------| 0---------- 0------------ 5 7--|
B| 5-- 5-- 5-- 5-- 5-- 5 5---- 8--| 0---------- 0-------- 0--------|
G| 5-- 5-- 5-- 5-- 5-- 5-- 5-- 5--| 0---------- 0------ 0----------|
D|---------------------------- 5--|--------------------------------|
A| 0-------------- 0--------------|--------------------------------|
E|--------------------------------| 3---------- 3------------------|
Classical Guitar Tablature : http://classicalguitartablature.blogspot.com/
E| 8-- 8-- 7 5-- 7-- 7---- 5------| 0---------- 0------------ 5 7--|
B| 5-- 5-- 5---- 5-- 5---- 5-- 8--| 0-- 0------ 0-------- 0--------|
G| 5-- 5-- 5 5---- 5 5---- 5-- 5--| 0-- 0------ 0---- 0------------|
D|---------------------------- 5--|--------------------------------|
A| 8-------------- 8--------------|--------------------------------|
E|--------------------------------| 0---------- 0------------------|
Classical Guitar Tablature : http://classicalguitartablature.blogspot.com/
E| 8-- 8-- 7-- 5-- 7-- 7-- 5------|--------------------------------|
B| 5-- 5-- 5-- 5-- 5-- 5 5---- 8--| 5---------- 5------ 3------ 1--|
G| 5-- 5-- 5-- 5-- 5-- 5-- 5-- 5--| 4---------- 4------ 4------ 2--|
D|---------------------------- 5--| 5---------- 5------ 5------ 3--|
A| 0-------------- 0--------------|--------------------------------|
E|--------------------------------| 3---------- 3------------------|
Classical Guitar Tablature : http://classicalguitartablature.blogspot.com/
E|--------------------------------|--------------------------------|
B|---------- 1--------------------|--------------------------------|
G|------------ 2------------------|---------------------------- 2--|
D|------------ 3------------------|-- 2----------------------------|
A|---------------- 3-- 2-- 0-- 2--|---------------- 2-- 2-- 3------|
E| 1-------------------------- 0--|---------- 0--------------------|
Classical Guitar Tablature : http://classicalguitartablature.blogspot.com/
E|--------------------------------|--------------------------------|
B| 1------------------------------|--------------------------------|
G| 2-------------- 2--------------|---- 0--------------------------|
D| 2-------------- 2--------------|---- 0--------------------------|
A| 0------ 0-- 0-- 0-- 2-- 3------|---------------- 0-- 0-- 2------|
E|---------------------------- 3--|---- 3------ 3------------------|
Classical Guitar Tablature : http://classicalguitartablature.blogspot.com/
E|--------------------------------|--------------------------------|
B|--------------------------------|--------------------------------|
G|-------- 2----------------------|---- 0--------------------------|
D|-------- 3----------------------|---- 2--------------------------|
A|---------------- 3-- 2-- 0------|---------------- 2-- 2-- 3------|
E| 1------ 1-- 1-------------- 0--|---- 0------ 0------------------|
Classical Guitar Tablature : http://classicalguitartablature.blogspot.com/
E|--------------------------------|--------------------------------|
B| 1------------------------------|--------------------------------|
G| 2-------------- 2--------------|---- 0--------------------------|
D| 2-------------- 2--------------|---- 0--------------------------|
A| 0------ 0-- 0-- 0-- 2-- 3------|---------------- 0-- 0-- 2------|
E|---------------------------- 3--|---- 3------ 3------------------|
Classical Guitar Tablature : http://classicalguitartablature.blogspot.com/
E|--------------------------------|--------------------------------|
B|--------------------------------|--------------------------------|
G|-------- 2----------------------|---- 0--------------------------|
D|-------- 3----------------------|---- 2--------------------------|
A|---------------- 3-- 2-- 0------|---------------- 2-- 2-- 3------|
E| 1------ 1-- 1-------------- 0--|---- 0------ 0------------------|
Classical Guitar Tablature : http://classicalguitartablature.blogspot.com/
E|--------------------------------|--------------------------------|
B|--------------------------------|--------------------------------|
G|-- 2----------------------------|--------------------------------|
D| 2------------------------------|--------------------------------|
A| 0------------------------------|--------------------------------|
E|--------------------------------|--------------------------------|
Classical Guitar Tablature : http://classicalguitartablature.blogspot.com/