To celebrate the anniversary, I am giving you (finally...) : iPhone LickByNeck !!!!!!

Dancin' In The Moonlight-King Harvest

King Harvest's tune fingerstyle chord melody guitar BASIC arrangement played in the key of G.

Dancin' In the Moonlight - King Harvest - BASIC ARRANGEMENT played in the key of G
Classical Guitar Tablature : http://classicalguitartablature.blogspot.com/
E|------------ 7------ 7----------|------------------10------------|
B|-------- 5-- 5------ 5------10--|------------1012------1210------|
G|---- 5------ 5------ 5------11--|--------11------------------12--|
D| 7--------------------------10--|----10--------------------------|
A| 0------------------------------|--------------------------------|
E|--------------------------------|10--------------10--------------|
Classical Guitar Tablature : http://classicalguitartablature.blogspot.com/
E|---------- 5-------- 5------ 3--|--------------------------------|
B|------ 3---- 3------ 3------ 0--|------------ 0-------------- 0--|
G|---- 4-------------- 2------ 0--|-------- 0-------------- 0------|
D| 5------------------------------|---- 0-------------- 0----------|
A|--------------------------------|--------------------------------|
E| 3-------------- 2--------------| 0-------------- 0--------------|
Classical Guitar Tablature : http://classicalguitartablature.blogspot.com/
E|------------ 7------ 7----------|------------------10------------|
B|-------- 5-- 5------ 5------10--|------------1012------1210------|
G|---- 5------ 5------ 5------11--|--------11------------------12--|
D| 7--------------------------10--|----10--------------------------|
A| 0-------------- 0--------------|--------------------------------|
E|--------------------------------|10--------------10--------------|
Classical Guitar Tablature : http://classicalguitartablature.blogspot.com/
E|---------- 5-------- 5------ 3--|------ 0-------- 0-- 3----------|
B|------ 3---- 3------ 3------ 0--|------------ 3-------------- 0--|
G|---- 4-------------- 2------ 0--|---- 0------------------ 0------|
D| 5------------------------------|--------------------------------|
A|--------------------------------|--------------------------------|
E| 3-------------- 2--------------| 0-------------- 0--------------|
Classical Guitar Tablature : http://classicalguitartablature.blogspot.com/
E|--------------------------------|--------------------------------|
B|--------------------------------|---------------------------- 0--|
G|---- 2---- 2------ 0-- 2--------|-------- 2-- 0-- 2-- 0------ 0--|
D|---------- 2-------------- 2----|---- 4-------- 4-------- 4-- 0--|
A| 0------------ 0----------------| 5-------------- 5--------------|
E|--------------------------------|--------------------------------|
Classical Guitar Tablature : http://classicalguitartablature.blogspot.com/
E|---------------------------- 0--|-------- 0---- 0---- 3----------|
B|---- 3------ 3------ 3------ 0--|---- 3---- 3---- 0---------- 0--|
G|---- 0------ 2------ 2------ 0--|--------------------------------|
D|---- 0------ 0------ 0----------|--------------------------------|
A|--------------------------------|--------------------------------|
E| 3-------------- 2--------------| 0-------------- 0--------------|
Classical Guitar Tablature : http://classicalguitartablature.blogspot.com/
E|--------------------------------|--------------------------------|
B|--------------------------------|---------------------------- 0--|
G|---- 2---- 2------ 0-- 2--------|-------- 2-- 0-- 2-- 0------ 0--|
D|---------- 2-------------- 2----|---- 4-------- 4-------- 4-- 0--|
A| 0------------ 0----------------| 5-------------- 5--------------|
E|--------------------------------|--------------------------------|
Classical Guitar Tablature : http://classicalguitartablature.blogspot.com/
E|---------------------------- 0--|--------------------------------|
B|---- 3------ 3------ 3------ 0--|---- 3 0-------------------- 0--|
G|---- 0------ 2------ 2------ 0--|---------- 2---------- 0--------|
D|---- 0------ 0------ 0----------|------------------ 0------------|
A|--------------------------------|--------------------------------|
E| 3-------------- 2--------------| 0-------------- 0--------------|
Classical Guitar Tablature : http://classicalguitartablature.blogspot.com/
E|------------ 7------ 7----------|------------------10------------|
B|-------- 5-- 5------ 5------10--|------------1012------1210------|
G|---- 5------ 5------ 5------11--|--------11------------------12--|
D| 7--------------------------10--|----10--------------------------|
A| 0-------------- 0--------------|--------------------------------|
E|--------------------------------|10--------------10--------------|
Classical Guitar Tablature : http://classicalguitartablature.blogspot.com/
E|---------- 5-------- 5------ 3--|------ 0-------- 0-- 3----------|
B|------ 3---- 3------ 3------ 0--|------------ 3-------------- 0--|
G|---- 4-------------- 2------ 0--|---- 0------------------ 0------|
D| 5------------------------------|--------------------------------|
A|--------------------------------|--------------------------------|
E| 3-------------- 2--------------| 0-------------- 0--------------|
Classical Guitar Tablature : http://classicalguitartablature.blogspot.com/
E|--------------------------------|--------------------------------|
B|--------------------------------|---------------------------- 0--|
G|---- 2---- 2------ 0-- 2--------|-------- 2-- 0-- 2-- 0------ 0--|
D|---------- 2-------------- 2----|---- 4-------- 4-------- 4-- 0--|
A| 0------------ 0----------------| 5-------------- 5--------------|
E|--------------------------------|--------------------------------|
Classical Guitar Tablature : http://classicalguitartablature.blogspot.com/
E|---------------------------- 0--|-------- 0---- 0---- 3----------|
B|---- 3------ 3------ 3------ 0--|---- 3---- 3---- 0---------- 0--|
G|---- 0------ 2------ 2------ 0--|--------------------------------|
D|---- 0------ 0------ 0----------|--------------------------------|
A|--------------------------------|--------------------------------|
E| 3-------------- 2--------------| 0-------------- 0--------------|
Classical Guitar Tablature : http://classicalguitartablature.blogspot.com/
E|--------------------------------|--------------------------------|
B|--------------------------------|---------------------------- 0--|
G|---- 2---- 2------ 0-- 2--------|-------- 2-- 0-- 2-- 0------ 0--|
D|---------- 2-------------- 2----|---- 4-------- 4-------- 4-- 0--|
A| 0------------ 0----------------| 5-------------- 5--------------|
E|--------------------------------|--------------------------------|
Classical Guitar Tablature : http://classicalguitartablature.blogspot.com/
E|---------------------------- 0--|---------------------------- 7--|
B|---- 3------ 3------ 3------ 0--|---- 3-- 0------------------ 5--|
G|---- 0------ 2------ 2------ 0--|---------- 2 0-------- 0---- 5--|
D|---- 0------ 0------ 0----------|-------------------- 0----------|
A|--------------------------------|--------------------------------|
E| 3-------------- 2--------------| 0-------------- 0--------------|
Classical Guitar Tablature : http://classicalguitartablature.blogspot.com/
E|---- 5-- 5------------ 5-- 7----|---- 5---------- 5---------- 7--|
B|---- 5-- 5-- 8 8------ 5--------|---- 5------ 8-- 5-- 8------ 3--|
G|---- 5 5-- 5-- 5------ 5--------|---- 5------ 5-- 5-- 5------ 4--|
D|------------ 5------------------|------------ 5------ 5----------|
A| 0------------ 0-------------- 5|---------------- 5--------------|
E|--------------------------------|--------------------------------|
Classical Guitar Tablature : http://classicalguitartablature.blogspot.com/
E|---- 5------ 5------ 3------ 3--|---- 0------ 0------ 3------ 7--|
B|---- 3------ 3------ 3------ 0--|---- 0------ 0------ 0------ 5--|
G|---- 4------ 2------ 2------ 0--|---- 0------ 0------ 0------ 5--|
D|--------------------------------|--------------------------------|
A|--------------------------------|--------------------------------|
E| 3-------------- 2--------------| 0-------------- 0--------------|
Classical Guitar Tablature : http://classicalguitartablature.blogspot.com/
E|---- 5-- 5---- 5----------------|---- 5---------- 5---------- 7--|
B|---- 5-- 5-- 8-- 5---------- 5--|---- 5------ 8-- 5-- 8------ 3--|
G|---- 5-- 5-- 5 5-------- 5------|---- 5------ 5-- 5-- 5------ 4--|
D|------------ 5---- 5------------|------------ 5------ 5----------|
A| 0-------------- 0------------ 5|---------------- 5--------------|
E|--------------------------------|--------------------------------|
Classical Guitar Tablature : http://classicalguitartablature.blogspot.com/
E|---- 5------ 5------ 3------ 3--|---- 0------ 0------ 3------ 7--|
B|---- 3------ 3------ 3------ 0--|---- 0------ 0------ 0------ 5--|
G|---- 4------ 2------ 2------ 0--|---- 0------ 0------ 0------ 5--|
D|--------------------------------|--------------------------------|
A|--------------------------------|--------------------------------|
E| 3-------------- 2--------------| 0-------------- 0--------------|
Classical Guitar Tablature : http://classicalguitartablature.blogspot.com/
E|---- 5-- 5------------ 5-- 7----|---- 5---------- 5---------- 7--|
B|---- 5-- 5-- 8 8------ 5--------|---- 5------ 8-- 5-- 8------ 3--|
G|---- 5 5-- 5-- 5------ 5--------|---- 5------ 5-- 5-- 5------ 4--|
D|------------ 5------------------|------------ 5------ 5----------|
A| 0------------ 0-------------- 5|---------------- 5--------------|
E|--------------------------------|--------------------------------|
Classical Guitar Tablature : http://classicalguitartablature.blogspot.com/
E|---- 5------ 5------ 3------ 3--|---- 0------ 0------ 3------ 7--|
B|---- 3------ 3------ 3------ 0--|---- 0------ 0------ 0------ 5--|
G|---- 4------ 2------ 2------ 0--|---- 0------ 0------ 0------ 5--|
D|--------------------------------|--------------------------------|
A|--------------------------------|--------------------------------|
E| 3-------------- 2--------------| 0-------------- 0--------------|
Classical Guitar Tablature : http://classicalguitartablature.blogspot.com/
E|---- 5-- 5---- 5----------------|---- 5---------- 5---------- 7--|
B|---- 5-- 5-- 8-- 5---------- 5--|---- 5------ 8-- 5-- 8------ 3--|
G|---- 5-- 5-- 5 5-------- 5------|---- 5------ 5-- 5-- 5------ 4--|
D|------------ 5---- 5------------|------------ 5------ 5----------|
A| 0-------------- 0------------ 5|---------------- 5--------------|
E|--------------------------------|--------------------------------|
Classical Guitar Tablature : http://classicalguitartablature.blogspot.com/
E|---- 5------ 5------ 3------ 3--|---- 0--------------------------|
B|---- 3------ 3------ 3------ 0--|---------------------------- 0--|
G|---- 4------ 2------ 2------ 0--|------------ 0---------- 0------|
D|--------------------------------|-------- 0---------- 0----------|
A|--------------------------------|--------------------------------|
E| 3-------------- 2--------------| 0-------------- 0--------------|
Classical Guitar Tablature : http://classicalguitartablature.blogspot.com/
E|------------ 7------ 7----------|------------------10------------|
B|-------- 5-- 5------ 5------10--|------------1012------1210------|
G|---- 5------ 5------ 5------11--|--------11------------------12--|
D| 7--------------------------10--|----10--------------------------|
A| 0-------------- 0--------------|--------------------------------|
E|--------------------------------|10--------------10--------------|
Classical Guitar Tablature : http://classicalguitartablature.blogspot.com/
E|---------- 5-------- 5------ 3--|--------------------------------|
B|------ 3---- 3------ 3------ 0--|------------ 0-------------- 0--|
G|---- 4-------------- 2------ 0--|-------- 0-------------- 0------|
D| 5------------------------------|---- 0-------------- 0----------|
A|--------------------------------|--------------------------------|
E| 3-------------- 2--------------| 0-------------- 0--------------|
Classical Guitar Tablature : http://classicalguitartablature.blogspot.com/
E|------------ 7------ 7----------|------------------10------------|
B|-------- 5-- 5------ 5------10--|------------1012------1210------|
G|---- 5------ 5------ 5------11--|--------11------------------12--|
D| 7--------------------------10--|----10--------------------------|
A| 0-------------- 0--------------|--------------------------------|
E|--------------------------------|10--------------10--------------|
Classical Guitar Tablature : http://classicalguitartablature.blogspot.com/
E|---------- 5-------- 5------ 3--|---------- 3------------ 3------|
B|------ 3---- 3------ 3------ 3--|------------ 3---------- 3------|
G|---- 4-------------- 2------ 0--|------------ 2---------- 0------|
D| 5------------------------------|--------------------------------|
A|--------------------------------|--------------------------------|
E| 3-------------- 2--------------| 0---------- 2---------- 3------|
Classical Guitar Tablature : http://classicalguitartablature.blogspot.com/

0 ความคิดเห็น:

แสดงความคิดเห็น