To celebrate the anniversary, I am giving you (finally...) : iPhone LickByNeck !!!!!!

Radio Gaga-Queen

Queen's tune fingerstyle chord melody guitar BASIC arrangement played in the key of F.


Radio Gaga - Queen - BASIC ARRANGEMENT played in the key of F
Classical Guitar Tablature : http://classicalguitartablature.blogspot.com/
E|--------------------------------|--------------------------------|
B|--------------------------------|--------------------------------|
G|--------------------------------|--------------------------------|
D|---- 3-- 3----------------------|---- 3---- 3--------------------|
A|--------------------------------|--------------------------------|
E| 1 1-- 1 1-- 1 1 1------------ 1| 1 1-- 1 1-- 1 1 1--------------|
Classical Guitar Tablature : http://classicalguitartablature.blogspot.com/
E|--------------------------------|--------------------------------|
B| 1-- 3------ 1-------------- 1--| 1---- 3---- 1------ 1------ 3--|
G| 2-- 2------ 2------ 2------ 2--| 2---- 2---- 2------ 2------ 2--|
D| 3-- 3------ 3-------------- 3--| 3---- 3---- 3------ 3------ 3--|
A|--------------------------------|--------------------------------|
E| 1------ 1------ 1------ 1------| 1------ 1------ 1------ 1------|
Classical Guitar Tablature : http://classicalguitartablature.blogspot.com/
E|--------------------------------|---------------------------- 3--|
B| 3-- 5------ 3-------------- 3--| 3---- 5---- 3-------------- 3--|
G| 3-- 3------ 3------ 3------ 3--| 3-- 3------ 3-------------- 3--|
D| 5-- 5------ 5------ 5------ 5--| 5-- 5------ 5------ 5----------|
A|--------------------------------|--------------------------------|
E| 3------ 3------ 3------ 3------| 3------ 3------ 3------ 3------|
Classical Guitar Tablature : http://classicalguitartablature.blogspot.com/
E|--------------------------------|--------------------------------|
B| 8-- 6------ 6------ 6------ 8--| 8-- 6------ 6-------------- 6--|
G| 7-- 7------ 7------ 7------ 7--| 7-- 7------ 7------ 7------ 7--|
D| 8-- 8------ 8------ 8------ 8--| 8-- 8------ 8-------------- 8--|
A|--------------------------------|--------------------------------|
E| 6------ 6------ 6------ 6------| 6------ 6------ 6------ 6------|
Classical Guitar Tablature : http://classicalguitartablature.blogspot.com/
E|--------------------------------|--------------------------------|
B| 3------ 3-- 3------ 3------ 3--| 3---------- 1-- 1--------------|
G| 3------ 3-- 3------ 3------ 3--| 3---------- 2-- 2---------- 2--|
D| 5---------- 5------ 5------ 5--| 3---------- 3-- 3---------- 3--|
A|--------------------------------|--------------------------------|
E| 3------ 3------ 3------ 3------| 1------ 1------ 1------ 1------|
Classical Guitar Tablature : http://classicalguitartablature.blogspot.com/
E|--------------------------------|--------------------------------|
B| 3---------- 1-- 1---------- 1--| 1-- 3------ 1-------------- 1--|
G| 3---------- 2-- 2---------- 2--| 2-- 2------ 2------ 2------ 2--|
D| 3---------- 3-- 3---------- 3--| 3-- 3------ 3-------------- 3--|
A|--------------------------------|--------------------------------|
E| 1------ 1------ 1------ 1------| 1------ 1------ 1------ 1------|
Classical Guitar Tablature : http://classicalguitartablature.blogspot.com/
E|--------------------------------|--------------------------------|
B| 1---- 3---- 1------ 1------ 3--| 3-- 5------ 3-------------- 3--|
G| 2---- 2---- 2------ 2------ 2--| 3-- 3------ 3------ 3------ 3--|
D| 3---- 3---- 3------ 3------ 3--| 5-- 5------ 5------ 5------ 5--|
A|--------------------------------|--------------------------------|
E| 1------ 1------ 1------ 1------| 3------ 3------ 3------ 3------|
Classical Guitar Tablature : http://classicalguitartablature.blogspot.com/
E|---------------------------- 3--|--------------------------------|
B| 3---- 5---- 3-------------- 3--| 8-- 6------ 6------ 6------ 8--|
G| 3-- 3------ 3-------------- 3--| 7-- 7------ 7------ 7------ 7--|
D| 5-- 5------ 5------ 5----------| 8-- 8------ 8------ 8------ 8--|
A|--------------------------------|--------------------------------|
E| 3------ 3------ 3------ 3------| 6------ 6------ 6------ 6------|
Classical Guitar Tablature : http://classicalguitartablature.blogspot.com/
E|--------------------------------|--------------------------------|
B| 8-- 6------ 6-------------- 6--| 3------ 3-- 3------ 3------ 3--|
G| 7-- 7------ 7------ 7------ 7--| 3------ 3-- 3------ 3------ 3--|
D| 8-- 8------ 8-------------- 8--| 5---------- 5------ 5------ 5--|
A|--------------------------------|--------------------------------|
E| 6------ 6------ 6------ 6------| 3------ 3------ 3------ 3------|
Classical Guitar Tablature : http://classicalguitartablature.blogspot.com/
E|--------------------------------|---------------------------- 1--|
B| 3---------- 1-- 1--------------| 3---------- 1-- 1---------- 1--|
G| 3---------- 2-- 2---------- 2--| 3---------- 2-- 2---------- 2--|
D| 3---------- 3-- 3---------- 3--| 3---------- 3-- 3--------------|
A|--------------------------------|--------------------------------|
E| 1------ 1------ 1------ 1------| 1------ 1------ 1------ 1------|
Classical Guitar Tablature : http://classicalguitartablature.blogspot.com/
E| 1------ 3-- 1-------------- 1 1|------ 3---- 1-------------- 1--|
B| 1------ 1-- 1---------------- 1|------ 1---- 1-------------- 1--|
G| 2---------- 2-------------- 2--| 2------ 2-- 2-------------- 2--|
D|--------------------------------|--------------------------------|
A|--------------------------------|--------------------------------|
E| 1-- 1-- 1-- 1-- 1-- 1-- 1-- 1--| 1-- 1-- 1-- 1-- 1-- 1-- 1-- 1--|
Classical Guitar Tablature : http://classicalguitartablature.blogspot.com/
E|-------- 3----------------------|-------- 3------------------ 5--|
B| 6------ 6-- 6-------------- 6--| 6------ 6-- 6------------ 3----|
G| 5---------- 5------ 5------ 5--| 5------ 5-- 5------------------|
D| 3---------- 3------------------| 3---------- 3------------------|
A|--------------------------------|--------------------------------|
E| 4-- 4-- 4-- 4-- 4-- 4-- 4-- 4--| 4-- 4-- 4-- 4-- 4-- 4-- 4-- 4--|
Classical Guitar Tablature : http://classicalguitartablature.blogspot.com/
E| 5-------------------------- 5--| 5------------------------------|
B| 6------ 8 6---------------- 6--| 6---- 8-- 6-------------- 6----|
G|------ 7-- 7--------------------|------ 7-- 7-------------- 7----|
D|--------------------------------|--------------------------------|
A|--------------------------------|--------------------------------|
E| 6-- 6-- 6-- 6-- 6-- 6-- 6-- 6--| 6-- 6 6---- 6-- 6-- 6-- 6-- 6--|
Classical Guitar Tablature : http://classicalguitartablature.blogspot.com/
E|--------------------------------|--------------------------------|
B| 6------ 8-- 6-------------- 6--| 6------ 8-- 6------------------|
G| 7------ 7-- 7-------------- 7--| 7------ 7-- 7-------------- 5--|
D| 7------ 7-- 7-------------- 7--|------------ 7------------------|
A|--------------------------------|--------------------------------|
E| 7-- 7-- 7-- 7-- 7-- 7-- 7-- 7--| 7-- 7-- 7-- 7-- 7-- 7-- 7-- 7--|
Classical Guitar Tablature : http://classicalguitartablature.blogspot.com/
E|--------------------------------|--------------------------------|
B|10------11--10------------------|10------11--10------------------|
G|10------10--10------------------|10------10--10------------------|
D|10------10--10------------10----|10------10--10--------------10--|
A|--------------------------------|--------------------------------|
E| 8-- 8-- 8-- 8-- 8-- 8-- 8 8----| 8-- 8-- 8-- 8-- 8-- 8-- 8-- 8--|
Classical Guitar Tablature : http://classicalguitartablature.blogspot.com/
E|--------------------------------|--------------------------------|
B| 8------10-- 8------------------| 8------10-- 8------------------|
G| 9------ 9-- 9------------------| 9------ 9-- 9------------------|
D|10----------10--------------10--|10------10--10------------------|
A|--------------------------------|--------------------------------|
E| 8-- 8-- 8-- 8-- 8-- 8-- 8-- 8--| 8-- 8-- 8-- 8-- 8-- 8-- 8-- 8--|
Classical Guitar Tablature : http://classicalguitartablature.blogspot.com/
E|--------------------------------|--------------------------------|
B| 3---------- 1-- 1--------------|--------------------------------|
G| 3---------- 2-- 2---------- 2--| 3---------- 2-- 2--------------|
D| 3---------- 3-- 3------ 3------| 3---------- 3-- 3--------------|
A|--------------------------------|--------------------------------|
E| 1---------- 1-- 1--------------| 1---------- 1-- 1---------- 1--|
Classical Guitar Tablature : http://classicalguitartablature.blogspot.com/
E|------ 3------------------------|------------ 1------------------|
B| 6---------- 6------------------| 6-- 6-- 8-- 1------ 1----------|
G| 5---------- 5------ 5----------| 7-- 7-- 7-- 2------ 2----------|
D|--------------------------------| 8-- 8-- 8---------- 3----------|
A| 6---------- 6------------------|--------------------------------|
E|--------------------------------| 6---------- 1------------------|
Classical Guitar Tablature : http://classicalguitartablature.blogspot.com/
E|------------ 1------------------|------------ 1------------------|
B| 6-- 6-- 8-- 1------ 1----------| 6-- 6-- 8-- 1------ 1----------|
G| 7-- 7-- 7-- 2------ 2----------| 7-- 7-- 7-- 2------ 2----------|
D| 8-- 8-- 8---------- 3----------| 8-- 8-- 8---------- 3----------|
A|--------------------------------|--------------------------------|
E| 6---------- 1------------------| 6---------- 1------------------|
Classical Guitar Tablature : http://classicalguitartablature.blogspot.com/
E|------ 3------------------------|------------ 1------------------|
B| 6---------- 6------------------| 6-- 6-- 8-- 1------ 1----------|
G| 5---------- 5------ 5----------| 7-- 7-- 7-- 2------ 2----------|
D|--------------------------------| 8-- 8-- 8---------- 3----------|
A| 6---------- 6------------------|--------------------------------|
E|--------------------------------| 6---------- 1------------------|
Classical Guitar Tablature : http://classicalguitartablature.blogspot.com/
E|------------ 1------------------|--------------------------------|
B| 6-- 6-- 8-- 1------ 1----------|---------------------------- 3--|
G| 7-- 7-- 7-- 2------ 2----------|------------ 3------ 5----------|
D| 8-- 8-- 8---------- 3----------| 5------ 7----------------------|
A|--------------------------------| 6-------------- 6--------------|
E| 6---------- 1------------------|--------------------------------|
Classical Guitar Tablature : http://classicalguitartablature.blogspot.com/
E|--------------------------------|--------------------------------|
B|------------ 3-------------- 1--|-------- 5-- 6-------------- 6--|
G|-------- 3-------------- 0------| 7---------------------- 7------|
D|---- 3-------------- 2----------| 7------------------ 7----------|
A| 1-------------- 3--------------| 5-------------- 5--------------|
E|--------------------------------|--------------------------------|
Classical Guitar Tablature : http://classicalguitartablature.blogspot.com/
E| 1---------- 1 0------------ 0--|---------------- 0---------- 0--|
B| 1-------------- 1--------------| 3-------- 3-- 1----------------|
G| 0------ 0-------------- 0------|-------- 0-------------- 0------|
D|---- 2------------ 2------------|---- 2-------------- 2----------|
A| 3-------------- 3--------------| 3------------ 3----------------|
E|--------------------------------|------------------------------ 1|
Classical Guitar Tablature : http://classicalguitartablature.blogspot.com/
E|-- 1----------------------------|--------------------------------|
B| 1------------------------------|--------------------------------|
G| 2------------------------------|--------------------------------|
D|--------------------------------|---- 3---- 3--------------------|
A|--------------------------------|--------------------------------|
E|------------------------------ 1| 1 1-- 1 1-- 1 1 1------------ 1|
Classical Guitar Tablature : http://classicalguitartablature.blogspot.com/
E|--------------------------------|--------------------------------|
B|--------------------------------|--------------------------------|
G|--------------------------------|--------------------------------|
D|---- 3---- 3--------------------|---- 3---- 3--------------------|
A|--------------------------------|--------------------------------|
E| 1 1-- 1 1-- 1 1 1------------ 1| 1 1-- 1 1-- 1 1 1------------ 1|
Classical Guitar Tablature : http://classicalguitartablature.blogspot.com/
E|--------------------------------|--------------------------------|
B|--------------------------------|--------------------------------|
G|--------------------------------|--------------------------------|
D|---- 3---- 3--------------------|--------------------------------|
A|--------------------------------|--------------------------------|
E| 1 1-- 1 1-- 1 1 1--------------|--------------------------------|
Classical Guitar Tablature : http://classicalguitartablature.blogspot.com/

0 ความคิดเห็น:

แสดงความคิดเห็น