-----[FreeSplanS.com]-----ศูนย์รวมแบบบ้าน และ ตกแต่ง หลากหลายสไตล์-----
0 com

All I Ask OF You - Phantom of the Opera

Andrew Lloyd Webber's tune (Phantom Of The Opera) fingerstyle chord melody guitar BASIC arrangement played in the key of C.
Classical Guitar Tablature : http://classicalguitartablature.blogspot.com/

All I Ask OF You - Phantom of the Opera - Andrew Lloyd Webber - BASIC ARRANGEMENT played in the key of C
Classical Guitar Tablature : http://classicalguitartablature.blogspot.com/
E|--------------------------------|--------------------------------|
B| 1---- 1------ 1-------- 1------| 1------ 1------ 1---- 1------ 3|
G| 0------ 0---- 0-------- 0------| 0------ 0------ 0------ 0---- 0|
D| 2-- 2------ 2------ 2------ 2--|---- 2------ 2------ 2------ 2 2|
A| 3------------------------------| 3------------------------------|
E|--------------------------------|--------------------------------|
Classical Guitar Tablature : http://classicalguitartablature.blogspot.com/
E|---------- 0 0------------------|---------- 0 3-------------- 5--|
B|---- 1 3---------------------- 3|---- 1-- 3----------------------|
G|---- 0 0---------- 0-------- 0--| 0-- 0-- 0------------ 0--------|
D|---- 2 2---------------- 2------| 2-- 2-- 2-------- 2------------|
A| 3-------------- 3--------------| 3------------ 3----------------|
E|--------------------------------|--------------------------------|
Classical Guitar Tablature : http://classicalguitartablature.blogspot.com/
E| 0---- 3-- 1 0-- 3---------- 0--|---------- 0-- 3----------------|
B| 0-------------- 3-- 3----------| 6-- 8 6------ 3-- 3---------- 3|
G| 0---- 0-------- 2-- 2----------| 7 7---------- 0-- 0-------- 0 0|
D|---- 0------------------ 0------|-- 8-------------- 0-- 0------ 2|
A|--------------------------------|--------------------------------|
E| 0-------------- 1--------------| 6------------ 3----------------|
Classical Guitar Tablature : http://classicalguitartablature.blogspot.com/
E|---------- 0 0------------------|---------- 0 3-------------- 5--|
B|---- 1 3---------------------- 3|---- 1-- 3----------------------|
G|---- 0 0---------- 0-------- 0--| 0-- 0-- 0------------ 0--------|
D|---- 2 2---------------- 2------| 2-- 2-- 2-------- 2------------|
A| 3-------------- 3--------------| 3------------ 3----------------|
E|--------------------------------|--------------------------------|
Classical Guitar Tablature : http://classicalguitartablature.blogspot.com/
E| 0---- 3-- 1 0-- 3---------- 0--|---------- 0-- 3--------------10|
B| 0-------------- 3-- 3----------| 6-- 8 6------ 3-- 3------------|
G| 0---- 0-------- 2-- 2----------| 7 7---------- 0-- 0-------- 0--|
D|---- 0------------------ 0------|-- 8-------------- 0-- 0--------|
A|--------------------------------|--------------------------------|
E| 0-------------- 1--------------| 6------------ 3----------------|
Classical Guitar Tablature : http://classicalguitartablature.blogspot.com/
E|--------10------10--------------| 5------ 5---- 5----------------|
B| 8-------------------------- 8--| 6-------------- 0-- 0----------|
G| 9---- 9------ 9-------- 9------| 5---- 5-------- 0---------- 0--|
D|----10------10------10----------|---- 7------ 7---------- 0------|
A|-------------- 0----------------| 5------------------------------|
E| 8------------------------------|---------------- 3--------------|
Classical Guitar Tablature : http://classicalguitartablature.blogspot.com/
E| 8---------- 7-- 5--------------|------------------------ 5 3--10|
B| 5------ 5---------- 8------ 5--| 8 5 8---------- 2 3------------|
G| 5---- 5------ 5---- 5-- 5------| 5---------- 5 4----------------|
D|---- 5------------------------ 7|------ 7------ 3----------------|
A|-------------- 0-------------- 5|--------------------------------|
E| 0------------------------------|-------------- 3----------------|
Classical Guitar Tablature : http://classicalguitartablature.blogspot.com/
E|--------10------10--------------| 5------ 5---- 5-------------- 0|
B| 8-------------------------- 8--| 6-------------- 0-- 0-------- 1|
G| 9---- 9------ 9-------- 9------| 5---- 5-------- 0---------- 0 0|
D|----10------10------10----------|---- 7------ 7---------- 0------|
A|-------------- 0----------------| 5------------------------------|
E| 8------------------------------|---------------- 3------------ 0|
Classical Guitar Tablature : http://classicalguitartablature.blogspot.com/
E|-- 1 3---- 3---- 3 1------------|--------------------------------|
B|-- 0 1---- 1-- 1-- 1-- 1--------|--------------------------------|
G|-- 0-- 0------ 2-- 2-------- 2--| 0------ 0------ 0--------------|
D|------ 2------------------------|---- 0------ 0------------------|
A|--------------------------------|--------------------------------|
E|-------------- 1----------------| 3------------------------------|
Classical Guitar Tablature : http://classicalguitartablature.blogspot.com/
E|------------------ 0 3 0------10|--------10------10--------------|
B| 3 3---------- 3------------ 3--| 8-------------------------- 8--|
G|--------------------------------| 9---- 9------ 9-------- 9------|
D|--------------------------------|----10------10------10----------|
A|--------------------------------|-------------- 0----------------|
E|--------------------------------| 8------------------------------|
Classical Guitar Tablature : http://classicalguitartablature.blogspot.com/
E| 5------ 5---- 5----------------| 8---------- 7-- 5--------------|
B| 6-------------- 0-- 0----------| 5------ 5---------- 8------ 5--|
G| 5---- 5-------- 0---------- 0--| 5---- 5------ 5---- 5-- 5------|
D|---- 7------ 7---------- 0------|---- 5------------------------ 7|
A| 5------------------------------|-------------- 0-------------- 5|
E|---------------- 3--------------| 0------------------------------|
Classical Guitar Tablature : http://classicalguitartablature.blogspot.com/
E|------------------------ 5 3--10|--------10------10--------------|
B| 8 5 8---------- 2 3------------| 8-------------------------- 8--|
G| 5---------- 5 4----------------| 9---- 9------ 9-------- 9------|
D|------ 7------ 3----------------|----10------10------10----------|
A|--------------------------------|-------------- 0----------------|
E|-------------- 3----------------| 8------------------------------|
Classical Guitar Tablature : http://classicalguitartablature.blogspot.com/
E| 5------ 5---- 5-------------- 0|-- 1 3---- 3---------- 8--------|
B| 6-------------- 0-- 0-------- 1|-- 0 1---- 1-- 8----------10----|
G| 5---- 5-------- 0---------- 0 0|-- 0-- 0------10--10------------|
D|---- 7------ 7---------- 0------|------ 2------10----------------|
A| 5------------------------------|-------------- 8----------------|
E|---------------- 3------------ 0|------------------------------ 3|
Classical Guitar Tablature : http://classicalguitartablature.blogspot.com/
E| 3------------------------------|---------------------------- 3--|
B| 6------------------------------|------ 3-- 3---------- 3 5------|
G| 5------ 5-------- 4------------|--------------------------------|
D|---- 3--------------------------|--------------------------------|
A|--------------------------------|--------------------------------|
E|--------------------------------|--------------------------------|
Classical Guitar Tablature : http://classicalguitartablature.blogspot.com/
E|--------------------------------|--------------------------------|
B| 5-------- 3--------------------| 1------------------------------|
G|--------------------------------|--------------------------------|
D|------------------------------ 2|--------------------------------|
A|------------------------------ 3|--------------------------------|
E|--------------------------------|--------------------------------|
Classical Guitar Tablature : http://classicalguitartablature.blogspot.com/
0 com

Theme From A Summer Place - Max Steiner

Max Steiner's tune fingerstyle chord melody guitar BASIC arrangement played in the key of E.
Classical Guitar Tablature : http://classicalguitartablature.blogspot.com/

Theme From A Summer Place - Max Steiner - BASIC ARRANGEMENT played in the key of E
Classical Guitar Tablature : http://classicalguitartablature.blogspot.com/
E|------------------------|------------------------|
B| 0-- 0 0-- 0---- 0 0----|------------------------|
G| 1-- 1-- 1 1---- 1-- 1 2|-- 2-- 2-- 2-- 2-- 2----|
D| 2-- 2-- 2 2---- 2-- 2 4|-- 4-- 4-- 4-- 4-- 4----|
A|------------------------|------------------------|
E| 0----------------------| 0----------------------|
Classical Guitar Tablature : http://classicalguitartablature.blogspot.com/
E|------------------------|------------------------|
B| 0-- 0-- 0-- 0-- 0-- 0--|------------------------|
G| 1-- 1-- 1-- 1-- 1-- 1--| 2-- 2-- 2 2-- 2---- 2--|
D| 2-- 2-- 2-- 2-- 2-- 2--| 4-- 4-- 4 4---- 4-- 4--|
A|------------------------|------------------------|
E| 0----------------------| 0----------------------|
Classical Guitar Tablature : http://classicalguitartablature.blogspot.com/
E|------------------------|------------------------|
B| 0----------------------|------ 2-- 5------ 4----|
G|-------- 1---------- 1--|------ 2-- 2------ 2----|
D|---- 2---------- 2------|-- 2------ 4-- 4--------|
A|------------ 4----------|------------ 2----------|
E| 0-------------------- 2|------------------------|
Classical Guitar Tablature : http://classicalguitartablature.blogspot.com/
E|------------------------|------------------------|
B| 0----------------------|------ 2-- 5------ 4----|
G|-------- 1---------- 1--|------ 2-- 2------ 2----|
D|---- 2---------- 2------|-- 2------ 4-- 4--------|
A|------------ 4----------|------------ 2----------|
E| 0-------------------- 2|------------------------|
Classical Guitar Tablature : http://classicalguitartablature.blogspot.com/
E| 4----------------------|------------------ 2----|
B| 5---------------- 4-- 2|-------------- 4--------|
G|-------- 4------ 6---- 2|-------- 2---- 2--------|
D|---- 6-------- 6--------|---- 2-------- 4--------|
A|---------- 4------------|------------ 2----------|
E| 0----------------------| 2----------------------|
Classical Guitar Tablature : http://classicalguitartablature.blogspot.com/
E| 4----------------------|------------------ 2----|
B| 5---------------- 4-- 2|-------------- 4--------|
G|-------- 4------ 6---- 2|-------- 2---- 2--------|
D|---- 6-------- 6--------|---- 2-------- 4--------|
A|---------- 4------------|------------ 2----------|
E| 0----------------------| 2----------------------|
Classical Guitar Tablature : http://classicalguitartablature.blogspot.com/
E|------------------------|------------------------|
B|---- 4-- 5-- 4----------| 2------ 2-- 5------ 4--|
G| 4-- 4-- 4-- 4-- 6-- 4--| 2------ 2-- 2----------|
D|------------------------|---- 2------ 4-- 4------|
A|------------ 4----------|------------ 2----------|
E| 0----------------------| 2----------------------|
Classical Guitar Tablature : http://classicalguitartablature.blogspot.com/
E|------------------------|------------------------|
B|---- 4-- 5-- 4----------| 2------ 2-- 5------ 4--|
G| 4-- 4-- 4-- 4-- 6-- 4--| 2------ 2-- 2----------|
D|------------------------|---- 2------ 4-- 4------|
A|------------ 4----------|------------ 2----------|
E| 0----------------------| 2----------------------|
Classical Guitar Tablature : http://classicalguitartablature.blogspot.com/
E| 4----------------------|------------------ 2----|
B| 5---------------- 4-- 2|-------------- 4--------|
G|-------- 4------ 6---- 2|-------- 2---- 2--------|
D|---- 6-------- 6--------|---- 2-------- 4--------|
A|---------- 4------------|------------ 2----------|
E| 0----------------------| 2----------------------|
Classical Guitar Tablature : http://classicalguitartablature.blogspot.com/
E| 4----------------------|------------------ 2----|
B| 5---------------- 4-- 2|-------------- 4------ 5|
G|-------- 4------ 6---- 2|-------- 2---- 2------ 4|
D|---- 6-------- 6--------|---- 2-------- 4------ 6|
A|------------ 4----------|------------ 2----------|
E| 0----------------------| 2----------------------|
Classical Guitar Tablature : http://classicalguitartablature.blogspot.com/
E|-------------------- 9--|12-- 9------------------|
B|-------------- 9--------|--------10-- 7------ 7--|
G|-- 4---- 6-- 9----------| 9-- 9-- 9-- 8-- 8------|
D|---------- 9------------|--------11-- 7----------|
A|------------------------| 9----------------------|
E| 0---------- 9----------|------------ 7----------|
Classical Guitar Tablature : http://classicalguitartablature.blogspot.com/
E|-------------------- 9--|12-- 9------------------|
B| 5-------------- 9------|--------10-- 7------ 7--|
G| 4-- 4-- 6-- 9----------| 9-- 9-- 9-- 8-- 8------|
D| 6---------- 9----------|--------11-- 7----------|
A|------------------------| 9----------------------|
E| 0---------- 9----------|------------ 7----------|
Classical Guitar Tablature : http://classicalguitartablature.blogspot.com/
E|------------------ 4----|------------------------|
B| 5-------------- 4------| 4-------- 2------------|
G| 6------ 6------ 4------| 4------ 4 2------ 2-- 4|
D|---- 6---------- 4------|-- 4------------ 2------|
A| 4----------------------|------------------------|
E|------------ 7----------| 5---------- 2-------- 4|
Classical Guitar Tablature : http://classicalguitartablature.blogspot.com/
E|------------------------|------------------------|
B|------------------ 5----| 0----------------------|
G|-------- 4---- 6--------|-------- 2-- 2------ 2--|
D|---- 4---- 4------------|---- 2---------- 4------|
A|---------- 4------------|------------ 0----------|
E|------------------------| 2----------------------|
Classical Guitar Tablature : http://classicalguitartablature.blogspot.com/
E|------------------------|------------ 4----------|
B|-------------------- 0--| 2----------------------|
G| 1------ 1-- 1-- 2------| 3------ 3---------- 3--|
D|---- 2------ 2----------|---- 2---------- 2------|
A| 2---------- 2----------|------------------------|
E|------------------------| 2---------- 2----------|
Classical Guitar Tablature : http://classicalguitartablature.blogspot.com/
E|------------------------|------------------ 9----|
B| 7----------------------|-------------- 7--------|
G|------ 8------------ 8--|---------- 8------------|
D|-- 7------------ 7------|---- 911----------------|
A|------------------------|------------------------|
E| 7---------- 7----------| 7-------- 7------------|
Classical Guitar Tablature : http://classicalguitartablature.blogspot.com/
E| 7----------------------|------------------------|
B| 5-- 4-- 5-- 4----------| 2------ 2-- 5------ 4--|
G| 4-- 4-- 4-- 4-- 6-- 4--| 2------ 2-- 2----------|
D|---- 6-- 6-- 6----------|---- 2------ 4-- 4------|
A|------------ 4----------|------------ 2----------|
E| 0----------------------| 2----------------------|
Classical Guitar Tablature : http://classicalguitartablature.blogspot.com/
E|------------------------|------------------------|
B|---- 4-- 5-- 4----------| 2------ 2-- 5------ 4--|
G| 4-- 4-- 4-- 4-- 6-- 4--| 2------ 2-- 2----------|
D|------------------------|---- 2------ 4-- 4------|
A|------------ 4----------|------------ 2----------|
E| 0----------------------| 2----------------------|
Classical Guitar Tablature : http://classicalguitartablature.blogspot.com/
E| 4----------------------|------------------ 2----|
B| 5---------------- 4-- 2|-------------- 4--------|
G|-------- 4------ 6---- 2|-------- 2---- 2--------|
D|---- 6-------- 6--------|---- 2-------- 4--------|
A|------------ 4----------|------------ 2----------|
E| 0----------------------| 2----------------------|
Classical Guitar Tablature : http://classicalguitartablature.blogspot.com/
E| 4----------------------|------------------ 2----|
B| 5---------------- 4-- 2|-------------- 4------ 5|
G|-------- 4------ 6---- 2|-------- 2---- 2------ 4|
D|---- 6-------- 6--------|---- 2-------- 4------ 6|
A|------------ 4----------|------------ 2----------|
E| 0----------------------| 2----------------------|
Classical Guitar Tablature : http://classicalguitartablature.blogspot.com/
E|-------------------- 9--|12-- 9------------------|
B|-------------- 9--------|--------10-- 7------ 7--|
G|-- 4---- 6-- 9----------| 9-- 9-- 9-- 8-- 8------|
D|---------- 9------------|--------11-- 7----------|
A|------------------------| 9----------------------|
E| 0---------- 9----------|------------ 7----------|
Classical Guitar Tablature : http://classicalguitartablature.blogspot.com/
E|-------------------- 9--|12-- 9------------------|
B| 5-------------- 9------|--------10-- 7------ 7--|
G| 4-- 4-- 6-- 9----------| 9-- 9-- 9-- 8-- 8------|
D| 6---------- 9----------|--------11-- 7----------|
A|------------------------| 9----------------------|
E| 0---------- 9----------|------------ 7----------|
Classical Guitar Tablature : http://classicalguitartablature.blogspot.com/
E|-------------------- 9--|12-- 9------------------|
B| 5-------------- 9------|--------10-- 7------ 7--|
G| 4-- 4-- 6-- 9----------| 9-- 9-- 9-- 8-- 8------|
D| 6---------- 9----------|--------11-- 7----------|
A|------------------------| 9----------------------|
E| 0---------- 9----------|------------ 7----------|
Classical Guitar Tablature : http://classicalguitartablature.blogspot.com/
E|-------------------- 9--|12---- 9---------- 9----|
B| 5-------------- 9------|------10----10--------10|
G| 4-- 4-- 6-- 9----------| 9---- 9---- 9---- 8----|
D| 6---------- 9----------|------------11----------|
A|------------------------| 9----------------------|
E| 0---------- 9----------|------------------ 7----|
Classical Guitar Tablature : http://classicalguitartablature.blogspot.com/
E|------------------------|------------------------|
B|-- 7-- 5----------------|------------------------|
G|------------ 6----------|------------------ 1----|
D|------------------ 7----|---------------- 2------|
A|------------------------|------------------------|
E|------------------------|-------------- 0--------|
Classical Guitar Tablature : http://classicalguitartablature.blogspot.com/
0 com

Por Una Cabeza - Carlos Gardel

Carlos Gardel's tune (a popular tango tune) fingerstyle chord melody guitar BASIC arrangement played in the key of E.
Classical Guitar Tablature : http://classicalguitartablature.blogspot.com/

Por Una Cabeza - Carlos Gardel - BASIC ARRANGEMENT played in the key of E
Classical Guitar Tablature : http://classicalguitartablature.blogspot.com/
E|--------------------------------|--------------------------------|
B|-- 0---------------------- 0----| 2-- 0------ 0------ 0-- 2 4----|
G|---------------- 1-- 2-- 3------| 1-------- 1---- 3--------------|
D| 2------------------------------| 2-------- 2--------------------|
A|--------------------------------|--------------------------------|
E| 0------------------------------| 0------------------------------|
Classical Guitar Tablature : http://classicalguitartablature.blogspot.com/
E| 2-- 0-------- 4---- 5 2 4------|---- 2--------------------------|
B| 0-------- 0---------------- 4--|-------- 4-- 5 4----------------|
G| 1------ 1----------------------|-------------------- 4------ 2--|
D|--------------------------------|--------------------------------|
A|--------------------------------|--------------------------------|
E| 0------------------------------| 0------------------------------|
Classical Guitar Tablature : http://classicalguitartablature.blogspot.com/
E|---------------- 5 4-- 7-- 5-- 2|------------ 2 2-- 1-- 4-- 2----|
B|------------ 2---------------- 2|-------- 2----------------------|
G|-------- 2----------------------|---- 2--------------------------|
D|---- 2--------------------------|--------------------------------|
A|--------------------------------|--------------------------------|
E| 2---------------------------- 2|--------------------------------|
Classical Guitar Tablature : http://classicalguitartablature.blogspot.com/
E|---------------------------- 4--|-- 2----------------------------|
B|---------- 7------------ 7------|------ 4---------- 4 2----------|
G| 8------ 8---- 8 9----10--------|---------- 4-- 5------------ 2--|
D|---- 9--------------------------|--------------------------------|
A|--------------------------------|--------------------------------|
E| 7------------------------------| 2------------------------------|
Classical Guitar Tablature : http://classicalguitartablature.blogspot.com/
E|--------------------------------|--------------------------------|
B|------------ 0------------ 0----| 2-- 0------ 0------ 0-- 2 4----|
G| 1------ 1------ 1-- 2-- 3 1----| 1-------- 1---- 3--------------|
D|---- 2--------------------------| 2-------- 2--------------------|
A|--------------------------------|--------------------------------|
E| 0------------------------------| 0------------------------------|
Classical Guitar Tablature : http://classicalguitartablature.blogspot.com/
E|------------------------ 4------|---- 0---- 4---------- 0---- 9--|
B| 7-- 5---- 5-- 5---- 7 5-- 5----| 7------ 7-- 7-- 7------ 7------|
G| 4------ 4---- 4---- 4----------| 7------ 7 7---- 7------ 7------|
D| 6---- 6------ 6---- 6-------- 6|-------- 6------ 6--------------|
A|--------------------------------|--------------------------------|
E| 0------------ 0-------------- 0|--------------------------------|
Classical Guitar Tablature : http://classicalguitartablature.blogspot.com/
E|--------------------------------|------------------ 0------------|
B|-------- 9------ 6-- 5----------|-------------- 1------ 3-- 1----|
G|------ 9-- 9------------ 6------| 1------ 1-- 2------------------|
D|---- 7------ 7------------ 7----|---- 4--------------------------|
A| 0------------------------------| 0------------------------------|
E|--------------------------------|------------------------------ 4|
Classical Guitar Tablature : http://classicalguitartablature.blogspot.com/
E|------------------------ 4---- 2|------------------------ 2------|
B| 5---------- 5 5---- 7 5-- 5----|-------- 2------ 4-- 5-- 4 4----|
G|---- 4---- 4---- 4--------------|------ 3-- 3---- 2--------------|
D| 6------ 6---- 6----------------|---- 2------ 2-- 4--------------|
A|--------------------------------|-------------- 2----------------|
E|---------------- 4--------------| 2---------------------------- 0|
Classical Guitar Tablature : http://classicalguitartablature.blogspot.com/
E| 0------------------------------|---------- 3 3-------------- 7--|
B| 0------------------------------|------ 0-------- 8--10------ 8--|
G| 1------------------------------|---- 0---------- 9-- 9----------|
D|---------------- 2--------------|---- 2--------------------------|
A|------------ 2---------- 2------|---------- 2---- 7--------------|
E|------------------------------ 0|------------------------ 7------|
Classical Guitar Tablature : http://classicalguitartablature.blogspot.com/
E| 7------------------------------|---------- 0-- 0 0-- 2------ 3--|
B|---------- 7-- 7----------------|------ 1-- 1-- 1 1 0------------|
G|------ 7-- 7---- 7--------------|------ 0-- 0-- 0 0--------------|
D|---- 7---- 7-------- 7------ 7--|---- 2--------------------------|
A| 5-------------- 5--------------| 3-------------- 3--------------|
E|------------ 5---------- 5------|---------- 3------------ 3------|
Classical Guitar Tablature : http://classicalguitartablature.blogspot.com/
E| 3------------------------------|-------------------------- 0----|
B| 3------ 3-- 3-- 3--------------|------ 1-- 1 1 1---- 3---- 1----|
G|------ 0-------- 0--------------|---- 2---- 2 2 2---- 2----------|
D|---- 0-------------- 0------ 0--|---- 2---- 2 2-- 2--------------|
A| 2-------------- 2--------------| 0-------------- 0--------------|
E|------------ 3-------- 3--------|---------- 0---------- 0--------|
Classical Guitar Tablature : http://classicalguitartablature.blogspot.com/
E| 0-------------- 0-- 2---- 3 0--| 2------------------ 2---- 3-- 3|
B|-------- 0 0---- 0--------------|-------- 2---- 5----------------|
G|------ 0-------- 0--------------|------ 3------ 3----------------|
D|---- 2--------------------------|---- 4-------- 2----------------|
A|------------ 2---------- 2------|---------- 4---------- 4------ 3|
E| 3-------------- 3--------------| 2-------------- 2--------------|
Classical Guitar Tablature : http://classicalguitartablature.blogspot.com/
E|-------------- 2----------------|---------- 3 3-------------- 7--|
B|------ 3-------- 4--------------|------ 0-------- 8--10------ 8--|
G|------ 3-------- 2--------------|---- 0---------- 9-- 9----------|
D|---- 2-------------- 4---- 4----|---- 2--------------------------|
A|---------------- 2--------------|---------- 2---- 7--------------|
E|------------ 3---------- 2---- 0|------------------------ 7------|
Classical Guitar Tablature : http://classicalguitartablature.blogspot.com/
E| 7------------------------------|---------- 0-- 0 0-- 2------ 3--|
B|---------- 7-- 7----------------|------ 1-- 1-- 1 1 0------------|
G|------ 7-- 7---- 7--------------|------ 0-- 0-- 0 0--------------|
D|---- 7---- 7-------- 7------ 7--|---- 2--------------------------|
A| 5-------------- 5--------------| 3-------------- 3--------------|
E|------------ 5---------- 5------|---------- 3------------ 3------|
Classical Guitar Tablature : http://classicalguitartablature.blogspot.com/
E| 3------------------------------|-------------------------- 0----|
B| 3------ 3-- 3-- 3--------------|------ 1-- 1 1 1---- 3---- 1----|
G|------ 0-------- 0--------------|---- 2---- 2 2 2---- 2----------|
D|---- 0-------------- 0------ 0--|---- 2---- 2 2-- 2--------------|
A| 2-------------- 2--------------| 0-------------- 0--------------|
E|------------ 3-------- 3--------|---------- 0---------- 0--------|
Classical Guitar Tablature : http://classicalguitartablature.blogspot.com/
E| 0-------------- 0-- 2---- 3 0--| 2------------------------ 2----|
B|-------- 0 0---- 0--------------|-------- 2------ 4-- 5---- 4 4--|
G|------ 0-------- 0--------------|------ 3-------- 2-- 2---- 2 2--|
D|---- 2--------------------------|---- 4---------- 4-- 4------ 4--|
A|------------ 2---------- 2------|------------ 4-- 2--------------|
E| 3-------------- 3--------------| 2---------------------- 2------|
Classical Guitar Tablature : http://classicalguitartablature.blogspot.com/
E| 0------------------------------|---------- 3 3-------------- 7--|
B| 0------ 0----------------------|------ 0-------- 8--10------ 8--|
G| 1------ 1----------------------|---- 0---------- 9-- 9----------|
D|---- 2---------- 2--------------|---- 2--------------------------|
A|------------ 2---------- 2------|---------- 2---- 7--------------|
E| 0---------------------------- 0|------------------------ 7------|
Classical Guitar Tablature : http://classicalguitartablature.blogspot.com/
E| 7------------------------------|---------- 0-- 0 0-- 2------ 3--|
B|---------- 7-- 7----------------|------ 1-- 1-- 1 1 0------------|
G|------ 7-- 7---- 7--------------|------ 0-- 0-- 0 0--------------|
D|---- 7---- 7-------- 7------ 7--|---- 2--------------------------|
A| 5-------------- 5--------------| 3-------------- 3--------------|
E|------------ 5---------- 5------|---------- 3------------ 3------|
Classical Guitar Tablature : http://classicalguitartablature.blogspot.com/
E| 3------------------------------|-------------------------- 0----|
B| 3------ 3-- 3-- 3--------------|------ 1-- 1 1 1---- 3---- 1----|
G|------ 0-------- 0--------------|---- 2---- 2 2 2---- 2----------|
D|---- 0-------------- 0------ 0--|---- 2---- 2 2-- 2--------------|
A| 2-------------- 2--------------| 0-------------- 0--------------|
E|------------ 3-------- 3--------|---------- 0---------- 0--------|
Classical Guitar Tablature : http://classicalguitartablature.blogspot.com/
E| 0-------------- 0-- 2---- 3 0--| 2------------------ 2---- 3-- 3|
B|-------- 0 0---- 0--------------|-------- 2---- 5----------------|
G|------ 0-------- 0--------------|------ 3------ 3----------------|
D|---- 2--------------------------|---- 4-------- 2----------------|
A|------------ 2---------- 2------|---------- 4---------- 4------ 3|
E| 3-------------- 3--------------| 2-------------- 2--------------|
Classical Guitar Tablature : http://classicalguitartablature.blogspot.com/
E|-------------- 2----------------|---------- 3 3-------------- 7--|
B|------ 3-------- 4--------------|------ 0-------- 8--10------ 8--|
G|------ 3-------- 2--------------|---- 0---------- 9-- 9----------|
D|---- 2-------------- 4---- 4----|---- 2--------------------------|
A|---------------- 2--------------|---------- 2---- 7--------------|
E|------------ 3---------- 2---- 0|------------------------ 7------|
Classical Guitar Tablature : http://classicalguitartablature.blogspot.com/
E| 7------------------------------|---------- 0-- 0 0-- 2------ 3--|
B|---------- 7-- 7----------------|------ 1-- 1-- 1 1 0------------|
G|------ 7-- 7---- 7--------------|------ 0-- 0-- 0 0--------------|
D|---- 7---- 7-------- 7------ 7--|---- 2--------------------------|
A| 5-------------- 5--------------| 3-------------- 3--------------|
E|------------ 5---------- 5------|---------- 3------------ 3------|
Classical Guitar Tablature : http://classicalguitartablature.blogspot.com/
E| 3------------------------------|-------------------------- 0----|
B| 3------ 3-- 3-- 3--------------|------ 1-- 1 1 1---- 3---- 1----|
G|------ 0-------- 0--------------|---- 2---- 2 2 2---- 2----------|
D|---- 0-------------- 0------ 0--|---- 2---- 2 2-- 2--------------|
A| 2-------------- 2--------------| 0-------------- 0--------------|
E|------------ 3-------- 3--------|---------- 0---------- 0--------|
Classical Guitar Tablature : http://classicalguitartablature.blogspot.com/
E| 0-------------- 0-- 2---- 3 0--| 2------------------------ 2-- 0|
B|-------- 0 0---- 0--------------|-------- 2------ 4-- 5---- 4 4--|
G|------ 0-------- 0--------------|------ 3-------- 2-- 2---- 2 2--|
D|---- 2--------------------------|---- 4---------- 4-- 4------ 4--|
A|------------ 2---------- 2------|------------ 4-- 2--------------|
E| 3-------------- 3--------------| 2---------------------- 2---- 0|
Classical Guitar Tablature : http://classicalguitartablature.blogspot.com/
E|-------------- 0----------------|---------------- 0--------------|
B|------ 0-- 0 0---- 0-- 0-- 0-- 0|------ 0-- 0 0------ 0-- 0-- 0--|
G|------ 0------------------------|---- 2--------------------------|
D|-- 2----------------------------|-- 4----------------------------|
A|---------- 2-- 7-------------- 5|---------- 0---- 5------ 0------|
E|---------------------- 7--------|--------------------------------|
Classical Guitar Tablature : http://classicalguitartablature.blogspot.com/
E|---------------- 0--------------|---------------- 0--------------|
B| 0---- 0-- 0 0------ 0-- 0-- 0--| 0---- 0-- 0 0-- 0-- 0-- 0-- 0--|
G|------ 0------------------------| 2---- 2-- 2 2-- 2-- 2-- 2-- 2--|
D|---- 2--------------------------|---- 1------ 1------ 1-- 1-- 1--|
A| 3-------------- 3--------------| 2-------------- 2--------------|
E|---------- 3------------ 3------|------------ 2---------- 2------|
Classical Guitar Tablature : http://classicalguitartablature.blogspot.com/
E| 0---------------- 0------------|--------------------------------|
B| 0---------------- 0------------|--------------------------------|
G| 0-------------- 0--------------|--------------------------------|
D|--------------------------------|--------------------------------|
A|--------------------------------|--------------------------------|
E| 0-------------- 0--------------|--------------------------------|
Classical Guitar Tablature : http://classicalguitartablature.blogspot.com/
0 com

Yellow - Cold Play

Coldplay's tune fingerstyle chord melody guitar BASIC arrangement played in the key of C.
Classical Guitar Tablature : http://classicalguitartablature.blogspot.com/

Yellow - Cold Play - BASIC ARRANGEMENT played in the key of C
Classical Guitar Tablature : http://classicalguitartablature.blogspot.com/
E| 3 3---- 3-- 3-- 3---- 3------ 3|-- 3-- 3---- 3---- 1-- 1---- 0--|
B| 1 1---- 1-- 1-- 1---- 1------ 1|-- 1-- 1---- 1---- 1-- 1--------|
G| 0 0---- 0-- 0-- 0---- 0------ 0|-- 0---- 0---- 0-- 0---- 0-- 0--|
D|--------------------------------|--------------------------------|
A| 3------------ 3-- 3------------|---- 3-- 3 3-- 3----------------|
E|--------------------------------|--------------------------------|
Classical Guitar Tablature : http://classicalguitartablature.blogspot.com/
E| 7-- 7-- 7---- 7-- 7-- 7---- 7--|-- 7---- 7-- 7---- 5-- 5-- 3----|
B|---- 3-- 3---- 3-- 3---- 3---- 3|-- 3-- 3---- 3---- 3-- 3---- 3 3|
G| 4-- 4-- 4---- 4-- 4---- 4---- 4|-- 4---- 4-- 4---- 4---- 4 4-- 2|
D|--------------------------------|------------------------------ 3|
A|--------------------------------|--------------------------------|
E| 3-------------- 3-- 3----------| 3-- 3---------- 3--------------|
Classical Guitar Tablature : http://classicalguitartablature.blogspot.com/
E|--------------------------------|--------------------------------|
B|-- 3-- 3---- 3-- 3---- 3------ 3|-- 3-- 3------ 3---- 1-- 1-- 1--|
G|-- 2-- 2---- 2-- 2---- 2------ 2|-- 2-- 2------ 2---- 2-- 2-- 2--|
D|-- 3-- 3---- 3-- 3---- 3------ 3|-- 3-- 3------ 3---- 3-- 3-- 3--|
A|--------------------------------|--------------------------------|
E| 1---------------- 1------------|---- 1-------------- 1----------|
Classical Guitar Tablature : http://classicalguitartablature.blogspot.com/
E| 3-- 3-- 3---- 3 3---- 3---- 3--| 3---- 3------ 3-- 3---- 3------|
B| 1-- 1-- 1---- 1 1---- 1--------| 1---- 1------ 1-- 1---- 1------|
G| 0-- 0-- 0---- 0 0---- 0------ 0| 0---- 0------ 0-- 0---- 0------|
D|--------------------------------|--------------------------------|
A| 3-- 3-- 3-------- 3------------|-- 3---------------- 3-------- 3|
E|--------------------------------|--------------------------------|
Classical Guitar Tablature : http://classicalguitartablature.blogspot.com/
E|---- 0-- 0------ 0--------------|---- 0 0-------- 0-- 3----------|
B|---- 1-- 1-- 3-- 1---------- 1--|-- 1-- 1-- 3---- 1-- 1------ 3--|
G|---- 0-- 0-- 0-- 0------ 0------|---- 0 0-- 0---- 0-- 0----------|
D|------------ 2------ 2-------- 2|---------- 2--------------------|
A|--------------------------------| 3------------------------------|
E|--------------------------------|--------------------------------|
Classical Guitar Tablature : http://classicalguitartablature.blogspot.com/
E|--------------------------------|-------------------- 3----------|
B|--------------------------------|---- 3-- 3-- 1-- 3---------- 1--|
G|-------- 0-------------- 0------|---- 0-- 0-- 0-- 0--------------|
D|---- 0------ 0------ 0------ 0--|---- 0-- 0-- 0-- 0--------------|
A|--------------------------------|--------------------------------|
E| 3-------------- 3--------------| 3-------------- 3--------------|
Classical Guitar Tablature : http://classicalguitartablature.blogspot.com/
E|--------------------------------|--------------------------------|
B|--------------------------------|---- 1 1------ 1----------------|
G|-------- 2---- 2-------- 2------|---- 2 2---- 2---- 0------------|
D|---- 3------ 3------ 3------ 3--|---- 3------------------ 3------|
A|--------------------------------|------------------------------ 3|
E| 1-------------- 1--------------| 1-------------- 1--------------|
Classical Guitar Tablature : http://classicalguitartablature.blogspot.com/
E|---- 0-- 0------ 0--------------|---- 0 0-------- 0-- 3----------|
B|---- 1-- 1-- 3-- 1---------- 1--|-- 1-- 1-- 3---- 1-- 1------ 3--|
G|---- 0-- 0-- 0-- 0------ 0------|---- 0 0-- 0---- 0-- 0----------|
D|------------ 2------ 2-------- 2|---------- 2--------------------|
A|--------------------------------| 3------------------------------|
E|--------------------------------|--------------------------------|
Classical Guitar Tablature : http://classicalguitartablature.blogspot.com/
E|--------------------------------|-------------------- 3----------|
B|--------------------------------|---- 3-- 3-- 1-- 3---------- 1--|
G|-------- 0-------------- 0------|---- 0-- 0-- 0-- 0--------------|
D|---- 0------ 0------ 0------ 0--|---- 0-- 0-- 0-- 0--------------|
A|--------------------------------|--------------------------------|
E| 3-------------- 3--------------| 3-------------- 3--------------|
Classical Guitar Tablature : http://classicalguitartablature.blogspot.com/
E|--------------------------------|--------------------------------|
B|--------------------------------|---- 1 1------ 1----------------|
G|-------- 2---- 2-------- 2------|---- 2 2---- 2---- 0------------|
D|---- 3------ 3------ 3------ 3--|---- 3------------------ 3------|
A|--------------------------------|--------------------------------|
E| 1-------------- 1--------------| 1-------------- 1--------------|
Classical Guitar Tablature : http://classicalguitartablature.blogspot.com/
E|--------------------------------|-- 0-- 0-------- 0-- 3----------|
B|--------------------------------|-- 3-- 3---- 3-- 3---------- 3--|
G|-------- 0---- 0------ 0---- 0--|---- 0 0---- 0------------------|
D|---- 2------ 2-- 3 3------ 3----|------------------------ 2------|
A| 3-------------- 3------------ 3|---------------- 3--------------|
E|--------------------------------|--------------------------------|
Classical Guitar Tablature : http://classicalguitartablature.blogspot.com/
E|--------------------------------|-------------------- 3----------|
B|--------------------------------|---- 3-- 3-- 1-- 3---------- 1--|
G|-------- 0-------------- 0------|---- 0-- 0-- 0-- 0--------------|
D|---- 0------ 0------ 0------ 0--|---- 0-- 0-- 0-- 0--------------|
A|--------------------------------|--------------------------------|
E| 3-------------- 3--------------| 3-------------- 3--------------|
Classical Guitar Tablature : http://classicalguitartablature.blogspot.com/
E|--------------------------------|--------------------------------|
B|--------------------------------|---- 1 1------ 1----------------|
G|-------- 2---- 2-------- 2------|---- 2 2---- 2---- 0------------|
D|---- 3------ 3------ 3------ 3--|---- 3------------------ 3------|
A|--------------------------------|--------------------------------|
E| 1-------------- 1--------------| 1-------------- 1--------------|
Classical Guitar Tablature : http://classicalguitartablature.blogspot.com/
E|--------------------------------|--------------------------------|
B|--------------------------------|--------------------------------|
G|-------- 0---- 0------ 0------ 0|------ 0---- 0-------- 0--------|
D|---- 2------ 2------ 3------ 3 2|-- 2------ 2-- 3-- 3------ 3----|
A| 3-------------- 3--------------| 3------------ 3----------------|
E|--------------------------------|--------------------------------|
Classical Guitar Tablature : http://classicalguitartablature.blogspot.com/
E|---------- 5--------------------|---------- 3-- 3-- 0-- 0--------|
B|------------ 6------------------|---- 1-- 1 1-- 0---- 0-- 0------|
G|---- 5------ 5---------- 5-- 5--|---- 2-- 2 2---- 0-- 0-- 0------|
D|---- 7-------------- 7---- 7----|---- 2-- 2------------------ 0--|
A| 8-------------- 8--------------| 0------------------------------|
E|--------------------------------|---------------- 3--------------|
Classical Guitar Tablature : http://classicalguitartablature.blogspot.com/
E|---------- 5--------------------|---------- 3-- 3-- 0-- 0--------|
B|------------ 6------------------|---- 1-- 1 1-- 0---- 0-- 0------|
G|---- 5------ 5---------- 5-- 5--|---- 2-- 2 2---- 0-- 0-- 0------|
D|---- 7-------------- 7---- 7----|---- 2-- 2------------------ 0--|
A| 8-------------- 8--------------| 0------------------------------|
E|--------------------------------|---------------- 3--------------|
Classical Guitar Tablature : http://classicalguitartablature.blogspot.com/
E|---------- 5--------------------|---------- 3-- 3-- 0-- 0--------|
B|------------ 6------------------|---- 1-- 1 1-- 0---- 0-- 0------|
G|---- 5------ 5---------- 5-- 5--|---- 2-- 2 2---- 0-- 0-- 0------|
D|---- 7-------------- 7---- 7----|---- 2-- 2------------------ 0--|
A| 8-------------- 8--------------| 0------------------------------|
E|--------------------------------|---------------- 3--------------|
Classical Guitar Tablature : http://classicalguitartablature.blogspot.com/
E|--------------------------------|------------ 3 3-- 0-- 0--------|
B| 1------------------------------|---- 1-- 1-- 1 1-- 1-- 1--------|
G| 2-- 2------ 2---------- 2------|---- 2-- 2---- 2-- 2-- 2--------|
D| 3------ 3---------- 3------ 3--|---- 3-- 3---------------- 3----|
A|--------------------------------|--------------------------------|
E| 1-------------- 1--------------| 1-------------- 1--------------|
Classical Guitar Tablature : http://classicalguitartablature.blogspot.com/
E|------------ 3-- 3---- 3------ 3|-- 3-- 3---- 3---- 1-- 1---- 0--|
B|------------ 1-- 1---- 1------ 1|-- 1-- 1---- 1---- 1-- 1--------|
G| 0------ 0-- 0-- 0---- 0------ 0|-- 0---- 0---- 0-- 0---- 0-- 0--|
D|---- 2--------------------------|--------------------------------|
A| 3------------ 3-- 3------------|---- 3-- 3 3-- 3----------------|
E|--------------------------------|--------------------------------|
Classical Guitar Tablature : http://classicalguitartablature.blogspot.com/
E| 7-- 7-- 7---- 7-- 7-- 7---- 7--|-- 7---- 7-- 7---- 5-- 5-- 3----|
B|---- 3-- 3---- 3-- 3---- 3---- 3|-- 3-- 3---- 3---- 3-- 3---- 3 3|
G| 4-- 4-- 4---- 4-- 4---- 4---- 4|-- 4---- 4-- 4---- 4---- 4 4-- 2|
D|--------------------------------|------------------------------ 3|
A|--------------------------------|--------------------------------|
E| 3-------------- 3-- 3----------| 3-- 3---------- 3--------------|
Classical Guitar Tablature : http://classicalguitartablature.blogspot.com/
E|--------------------------------|--------------------------------|
B|-- 3-- 3---- 3-- 3---- 3------ 3|-- 3-- 3------ 3---- 1-- 1-- 1--|
G|-- 2-- 2---- 2-- 2---- 2------ 2|-- 2-- 2------ 2---- 2-- 2-- 2--|
D|-- 3-- 3---- 3-- 3---- 3------ 3|-- 3-- 3------ 3---- 3-- 3-- 3--|
A|--------------------------------|--------------------------------|
E| 1---------------- 1------------|---- 1-------------- 1----------|
Classical Guitar Tablature : http://classicalguitartablature.blogspot.com/
E| 3-- 3-- 3---- 3 3---- 3---- 3--| 3---- 3------ 3-- 3-- 3--------|
B| 1-- 1-- 1---- 1 1---- 1--------| 1---- 1------ 1-- 1---- 1-- 1--|
G| 0-- 0-- 0---- 0 0---- 0------ 0| 0---- 0------ 0-- 0-- 0--------|
D|--------------------------------|--------------------------------|
A| 3-- 3-- 3-------- 3------------|-- 3---------------- 3----------|
E|--------------------------------|--------------------------------|
Classical Guitar Tablature : http://classicalguitartablature.blogspot.com/
E| 3---------- 0------------------|--------------------------------|
B| 1------------------------------|---- 1-- 3-- 1-- 3------ 1------|
G| 0---------- 0---------- 0------|---- 0-- 0-- 0-- 0------ 0------|
D|------------------------ 2------|---- 2-- 2-- 2-- 2------ 2------|
A| 3-- 3-- 3-- 3-- 3-- 3-- 3-- 3--| 3-- 3-- 3-- 3-- 3-- 3-- 3-- 3--|
E|--------------------------------|--------------------------------|
Classical Guitar Tablature : http://classicalguitartablature.blogspot.com/
E| 3---------- 0------------------|--------------------------------|
B| 0---------- 0------------------|-- 1-- 3-- 1---- 3---- 1--------|
G| 0---------- 0-------- 0--------|-- 0---- 0-- 0-- 0---- 0--------|
D|---------------------- 0--------|-- 0---- 0-- 0-- 0---- 0--------|
A|--------------------------------|--------------------------------|
E| 3-- 3-- 3-- 3-- 3-- 3-- 3-- 3--| 3-- 3-- 3-- 3-- 3-- 3-- 3-- 3--|
Classical Guitar Tablature : http://classicalguitartablature.blogspot.com/
E| 5------------------------------|--------------------------------|
B| 5---------- 5------------------|------------------ 5------------|
G| 5---------- 5------------------|---- 5-- 7-- 5 7------------ 0--|
D|------------ 7------------------|--------------------------------|
A| 8-- 8-- 8-- 8-- 8-- 8-- 8-- 8--| 8-- 8-- 8-- 8-- 8 8---- 8-- 8--|
E|--------------------------------|--------------------------------|
Classical Guitar Tablature : http://classicalguitartablature.blogspot.com/
E|---- 0-- 0------ 0--------------|---- 0-- 0---- 0-- 3------------|
B|---- 1-- 1-- 3-------------- 1--|---- 1------ 3------ 1------ 3--|
G|---- 0-- 0-------------- 0------|--------------------------------|
D|-------------------- 2----------|------------------------ 2------|
A| 3------------------------------| 3------------------------------|
E|--------------------------------|--------------------------------|
Classical Guitar Tablature : http://classicalguitartablature.blogspot.com/
E|--------------------------------|-------------------- 3----------|
B|------------ 3------------------|---- 3-- 3------ 3---------- 1--|
G|-------- 3-------- 3------ 3----|---- 3------ 5------------------|
D|---- 5---------------- 5--------|--------------------------------|
A|--------------------------------|--------------------------------|
E| 3------------------------------| 3------------------------------|
Classical Guitar Tablature : http://classicalguitartablature.blogspot.com/
E|--------------------------------|--------------------------------|
B|------------ 1------------------|--------------------------------|
G|-------- 2----------------------|--------------------------------|
D|---- 3--------------------------|--------------------------------|
A|--------------------------------|--------------------------------|
E| 1------------------------------|--------------------------------|
Classical Guitar Tablature : http://classicalguitartablature.blogspot.com/