To celebrate the anniversary, I am giving you (finally...) : iPhone LickByNeck !!!!!!
0 com

Rock With You (BASIC)

Michael Jackson's tune fingerstyle chord melody guitar BASIC arrangement played in the key of Bbm.
Rock With You-Michael Jackson-BASIC Arrangement played in the key of Bbm.
ClassicalGuitarTablature http://classicalguitartablature.blogspot.com/
E|--------------------------------| 6------------------------------|
B|---------------------------- 2--| 6---- 6------------------------|
G|-------------------- 1-- 2 3----| 6---------- 6------------------|
D|--------------------------------|--------------------------------|
A|--------------------------------| 6------------ 6 6---------- 6--|
E|--------------------------------|--------------------------------|
ClassicalGuitarTablature http://classicalguitartablature.blogspot.com/
E|--------------------------------|--------------------------------|
B| 4---------- 6------------ 6----| 9-- 9-- 6----------------------|
G| 5---------- 7-------- 7--------| 6-- 6-- 6---- 6----------------|
D| 6---------- 6------------ 6----| 8-- 8------------------ 8-- 6--|
A|--------------------------------| 6------------ 6 6---------- 6--|
E| 6---------- 6------ 6---- 6----|--------------------------------|
ClassicalGuitarTablature http://classicalguitartablature.blogspot.com/
ClassicalGuitarTablature http://classicalguitartablature.blogspot.com/
E|--------------------------------| 6------------------------------|
B| 4---------- 7------------------| 6---- 6------------------------|
G| 5---------- 8-------------- 6--| 6---------- 6------------------|
D| 6---------- 9------ 6 8--------|--------------------------------|
A|--------------------------------| 6------------ 6 6---------- 6--|
E| 6---- 6---- 9------------------|--------------------------------|
ClassicalGuitarTablature http://classicalguitartablature.blogspot.com/
E|--------------------------------|--------------------------------|
B| 4---------- 6------------ 6-- 7|------ 6---- 4------ 6-- 6-- 4--|
G| 5---------- 7-------- 7--------| 6------ 6-- 6------ 6-- 6-- 6--|
D| 6---------- 6------------ 6----| 4------ 4-- 4------ 4-- 4-- 4--|
A|--------------------------------|--------------------------------|
E| 6---------- 6------ 6---- 6----| 4------ 4------ 4------ 4------|
ClassicalGuitarTablature http://classicalguitartablature.blogspot.com/
E|--------------------------------|--------------------------------|
B|---- 4------ 4------ 6-- 7------|--------------------------------|
G|---- 6------ 6------ 6-- 7------|-------- 5-------------- 6---- 3|
D|---- 4------ 4------ 4-- 6------|-------- 4-------------- 4------|
A|--------------------------------| 6---------- 6 6------------ 6--|
E| 4------ 4------ 4------ 6------|--------------------------------|
ClassicalGuitarTablature http://classicalguitartablature.blogspot.com/
E|--------------------------------|--------------------------------|
B|---------------------- 1--------|---------------- 1--------------|
G|---------------------- 3---- 1--|------ 1---- 3-- 1-- 3----------|
D| 4-------------------- 4---- 4--| 3---------- 3-------------- 3--|
A|--------------------------------| 1---------- 1-- 1--------------|
E| 4------------ 4 4--------------|--------------------------------|
ClassicalGuitarTablature http://classicalguitartablature.blogspot.com/
E|--------------------------------|--------------------------------|
B|--------------------------------|--------------------------------|
G|------ 1------ 1----------------|-------- 5-------------- 6---- 3|
D|------ 3------ 1------ 3--------|---- 4-- 4-------------- 4------|
A| 1---------- 1-- 3------ 4------| 6---------- 6 6-------- 6------|
E|--------------------------------|--------------------------------|
ClassicalGuitarTablature http://classicalguitartablature.blogspot.com/
E|--------------------------------|--------------------------------|
B|---------------------- 1--------|---------------- 1--------------|
G|---------------------- 3---- 1--|------ 1---- 3-- 1-- 3------ 3--|
D| 4-------------------- 4---- 4--| 3---------- 3-------------- 3--|
A|--------------------------------| 1---------- 1-- 1--------------|
E| 4------------ 4 4--------------|--------------------------------|
ClassicalGuitarTablature http://classicalguitartablature.blogspot.com/
E|--------------------------------|--------------------------------|
B|--------------------------------|---- 2------ 2------ 4----------|
G|------ 3---- 3------------------|---- 3------ 3-------------- 3--|
D|------ 3---- 3---------- 6------|---- 4------ 4-------------- 3--|
A| 1---------- 1-- 1-- 1----------|--------------------------------|
E|------------------------ 4 4----| 2-------------- 2--------------|
ClassicalGuitarTablature http://classicalguitartablature.blogspot.com/
E|--------------------------------|--------------------------------|
B|--------------------------------|---- 2------ 2------ 4----------|
G|---- 1---------------- 1--------|---- 4------ 4-------------- 3--|
D|---- 3---------------- 3--------|---- 4------ 4 4------------ 4--|
A|--------------------------------| 2------------ 2----------------|
E| 1------------ 1 1---------- 1--|--------------------------------|
ClassicalGuitarTablature http://classicalguitartablature.blogspot.com/
E|--------------------------------|---------------- 1--------------|
B|---------------------- 2--------|-------- 4------ 2--------------|
G|---- 1------ 3---- 3-------- 3--| 6------ 1------ 3--------------|
D|---- 4------ 4------------------| 4------ 1----------------------|
A|--------------------------------| 6------------------------------|
E| 4------------ 4 4--------------|-------- 1------ 2---- 2---- 2--|
ClassicalGuitarTablature http://classicalguitartablature.blogspot.com/
E| 4-- 4-- 2-- 2-- 1--------------|---------------- 1------ 2-- 4--|
B| 2-- 2-- 2------ 2-- 4---- 2----|-------- 4------ 2---------- 2--|
G| 3-- 3-- 3---- 3 3-- 3---- 3-- 6|-------- 1------------------ 3--|
D|--------------------------------| 4-------------------------- 4--|
A|--------------------------------| 6------------------------------|
E|--------------------------------|-------- 1------ 2------ 3-- 4--|
ClassicalGuitarTablature http://classicalguitartablature.blogspot.com/
E|------ 4------ 4----------------| 6------------------------------|
B|-------- 2---- 1------------ 2--| 6---- 6------------------------|
G|-------- 3---- 1---- 1-- 3------| 6---------- 6------------------|
D|--------------------------------|--------------------------------|
A|--------------------------------| 6------------ 6 6---------- 6--|
E|---- 4-- 4-- 4-- 4------ 4------|--------------------------------|
ClassicalGuitarTablature http://classicalguitartablature.blogspot.com/
E|--------------------------------|--------------------------------|
B| 4---------- 6------------ 6----| 9---- 6------------------------|
G| 5---------- 7-------- 7--------| 6---- 6---- 6------------------|
D| 6---------- 6------------ 6----| 6---- 6---- 6---------- 8-- 6--|
A|--------------------------------| 6------------ 6----------------|
E| 6---------- 6------ 6---- 6----|--------------------------------|
ClassicalGuitarTablature http://classicalguitartablature.blogspot.com/
E|--------------------------------| 6------------------------------|
B| 4---------- 7------------------| 6---- 6------------------------|
G| 5---------- 8-------------- 6--| 6---------- 6------------------|
D| 6---------- 9------ 6 8--------|--------------------------------|
A|--------------------------------| 6------------ 6 6---------- 6--|
E| 6---- 6---- 9------------------|--------------------------------|
ClassicalGuitarTablature http://classicalguitartablature.blogspot.com/
E|--------------------------------|--------------------------------|
B| 4---------- 6------------ 6----| 7------ 6-- 4------ 6-- 6-- 4--|
G| 5---------- 7-------- 7--------| 6------ 6-- 6------ 6------ 6--|
D| 6---------- 6------------ 6----| 4------ 4-- 4------ 4-- 4-- 4--|
A|--------------------------------|--------------------------------|
E| 6---------- 6------ 6---- 6----| 4------ 4------ 4------ 4------|
ClassicalGuitarTablature http://classicalguitartablature.blogspot.com/
E|--------------------------------|---------------------------- 1--|
B|------------------------ 4------|------------ 2------ 4------ 2--|
G|------------ 6------ 6----------|---- 3------ 3-------------- 3--|
D|---- 4------ 4------ 4------ 4--|---- 3--------------------------|
A|--------------------------------| 1------------ 1----------------|
E| 4------ 4------ 4------ 4------|--------------------------------|
ClassicalGuitarTablature http://classicalguitartablature.blogspot.com/
E|--------------------------------|--------------------------------|
B|------------ 2------ 4----------|--------------------------------|
G|---- 3------ 1-------------- 3--|---- 6-- 6------ 6--------------|
D|---- 3---------------------- 5--|---- 5-- 5------ 5--------------|
A| 1------------ 1 1--------------| 6-------- 6---- 6------------ 6|
E|--------------------------------|---------------------------- 6--|
ClassicalGuitarTablature http://classicalguitartablature.blogspot.com/
E|---------------------------- 6--|--------------------------------|
B|---------------------------- 6--|------------------------ 6-- 2--|
G|-- 6---- 6---- 6------ 6---- 6--|------------------------ 6-- 1--|
D|-- 5------ 5-- 5----------------|------------------------ 8-- 3--|
A|---- 6---- 6-- 6----------------| 9------------ 9 9--------------|
E|--------------------------------|--------------------------------|
ClassicalGuitarTablature http://classicalguitartablature.blogspot.com/
E|---------------------------- 6--|--------------------------------|
B|---- 4------------------ 2-- 7--|------------------------ 6-- 2--|
G|---- 1---------------------- 8--|---------------------------- 3--|
D|---- 3-------------- 3----------|-------------------- 8------ 4--|
A|--------------------------------|--------------------------------|
E| 1------------ 1 1--------------| 7------------ 7----------------|
ClassicalGuitarTablature http://classicalguitartablature.blogspot.com/
E|---------------------------- 1--| 6---------- 6-- 6--------------|
B|---- 4-------- 4-------- 4------| 6---------- 6-- 6-- 9-- 6-- 9--|
G|---- 3---------- 3------ 3------| 6------------ 6---- 6-- 6-- 6--|
D|---- 4---------- 4------ 4------|-------------------- 8-- 8-- 8--|
A|--------------------------------| 6-------------- 6--------------|
E| 4-- 4-- 4-- 4-- 4-- 4-- 4------|--------------------------------|
ClassicalGuitarTablature http://classicalguitartablature.blogspot.com/
E|--------------------------------| 6------ 6---- 6-- 6------------|
B| 4---------- 6-------------- 6 9| 6------ 6---- 6-- 6 9-- 6-- 9--|
G| 5---------- 7------------ 7----| 6------ 6---- 6-- 6 6-- 6-- 6--|
D| 6---------- 6------------------|-------- 8-------------- 8-- 8--|
A|--------------------------------| 6------ 6------ 6--------------|
E| 6---- 6---- 6------ 6----------|--------------------------------|
ClassicalGuitarTablature http://classicalguitartablature.blogspot.com/
E|--------------------------------| 6------ 6---- 6-- 6------------|
B| 4---------- 7---------- 7-- 6 9| 6------ 6---- 6-- 6 9-- 6-- 9--|
G| 5---------- 8---------- 8------| 6------ 6---- 6-- 6 6-- 6-- 6--|
D| 6---------- 9---------- 9------|-------- 8-------------- 8-- 8--|
A|--------------------------------| 6------ 6------ 6--------------|
E| 6---- 6---- 9------ 9----------|--------------------------------|
ClassicalGuitarTablature http://classicalguitartablature.blogspot.com/
E|--------------------------------|------ 6------ 9------ 6--------|
B| 4---------- 6---------- 7------|-- 9-- 9---- 9 8------ 9---- 9--|
G| 5---------- 7---------- 8------|-- 8---- 8-- 8-- 9---- 8---- 8--|
D| 6---------- 8---------- 9------|-- 9-------- 9-------------- 9--|
A|--------------------------------|--------------------------------|
E| 6---------- 8---------- 9---- 9|-------- 9------ 9------ 9------|
ClassicalGuitarTablature http://classicalguitartablature.blogspot.com/
E|-------- 6------10------ 7------| 7------------------------------|
B|---- 9-- 9-- 9-- 8------ 8--10--| 7---- 7------------------------|
G|---- 8-- 8-- 8-- 9------ 9-- 9--| 7---- 7---- 7------------------|
D|---- 9------ 9------------------|--------------------------------|
A|--------------------------------|--------------------------------|
E| 9------ 9------10------10------| 0------------ 0 0---------- 0--|
ClassicalGuitarTablature http://classicalguitartablature.blogspot.com/
E|--------------------------------| 5---- 5 2----------------------|
B| 5---------- 7------------------|-------- 0------ 3------ 0------|
G| 6---------- 8------------------| 0---- 0 0------------------ 2--|
D| 7---------- 7------------------|--------------------------------|
A|--------------------------------|--------------------------------|
E| 7---- 7---- 7------ 7---- 7----| 0------------ 0 0--------------|
ClassicalGuitarTablature http://classicalguitartablature.blogspot.com/
E| 0---- 0---- 3------------------| 7------------------------------|
B| 2---- 2---- 5---------- 0-- 3--| 7---- 7------------------------|
G| 2---- 2---- 5------ 2----------| 7---------- 7------------------|
D|--------------------------------|--------------------------------|
A| 2---------- 5------------------|--------------------------------|
E|--------------------------------| 0------------ 0 0---------- 0--|
ClassicalGuitarTablature http://classicalguitartablature.blogspot.com/
E|--------------------------------| 3------ 2-- 0------ 2-- 2-- 0--|
B| 5---------- 7------------------| 0------ 0-- 0------ 0-- 0-- 0--|
G| 6---------- 8------------------| 0---------- 0------ 0-- 0-- 0--|
D| 7---------- 7------------------|--------------------------------|
A|--------------------------------| 0------ 0------ 0------ 0------|
E| 7---- 7---- 7------ 7---- 7----|--------------------------------|
ClassicalGuitarTablature http://classicalguitartablature.blogspot.com/
E|---- 0------ 0------------------| 7------------------------------|
B|---- 0-------------------- 3----| 7---- 7------------------------|
G|------------------ 2-- 4--------| 7---------- 7------------------|
D|--------------------------------|--------------------------------|
A| 0------ 0---- 0------ 0--------|--------------------------------|
E|--------------------------------| 0------------ 0 0---------- 0--|
ClassicalGuitarTablature http://classicalguitartablature.blogspot.com/
E|--------------------------------| 5---- 5 2----------------------|
B| 5---------- 7------------------|-------- 0------ 3------ 0------|
G| 6---------- 8------------------| 0---- 0 0------------------ 2--|
D| 7---------- 7------------------|--------------------------------|
A|--------------------------------|--------------------------------|
E| 7---- 7---- 7------ 7---- 7----| 0------------ 0 0--------------|
ClassicalGuitarTablature http://classicalguitartablature.blogspot.com/
E| 0---- 0---- 3------------------| 7------------------------------|
B| 2---- 2---- 5---------- 0-- 3--| 7---- 7------------------------|
G| 2---- 2---- 5------ 2----------| 7---------- 7------------------|
D|--------------------------------|--------------------------------|
A| 2---------- 5------------------|--------------------------------|
E|--------------------------------| 0------------ 0 0---------- 0--|
ClassicalGuitarTablature http://classicalguitartablature.blogspot.com/
E|--------------------------------| 3------ 2-- 0------ 2-- 2-- 0--|
B| 5---------- 7------------------| 0------ 0-- 0------ 0-- 0-- 0--|
G| 6---------- 8------------------| 0---------- 0------ 0-- 0-- 0--|
D| 7---------- 7------------------|--------------------------------|
A|--------------------------------| 0------ 0------ 0------ 0------|
E| 7---- 7---- 7------ 7---- 7----|--------------------------------|
ClassicalGuitarTablature http://classicalguitartablature.blogspot.com/
E|---- 0------ 0------------------| 7---- 2-------- 7--------------|
B|---- 0-------------------- 3----| 7---- 3---- 3-- 7---- 7--------|
G|------------------ 2-- 4--------| 7---- 2---- 4-- 7---- 7---- 7--|
D|--------------------------------|------------ 4-------- 7---- 5--|
A| 0------ 0---- 0------ 0--------|--------------------------------|
E|--------------------------------| 0---- 2---- 3-- 4---- 5---- 6--|
ClassicalGuitarTablature http://classicalguitartablature.blogspot.com/
E| 7-- 2--------------------------|--------------------------------|
B| 7-- 2------ 3------------------|--------------------------------|
G| 7-- 2------ 3------------------|--------------------------------|
D|------------ 3------------------|--------------------------------|
A|------ 4---- 3------------------|--------------------------------|
E| 7------------------------------|--------------------------------|
ClassicalGuitarTablature http://classicalguitartablature.blogspot.com/
0 com

Wake Me Up Before You Go Go (BASIC)

Wham's tune fingerstyle chord melody guitar BASIC arrangement played in the key of E.
Wake Me Up Before You Go Go-Wham-BASIC Arrangement played in the key of E.
ClassicalGuitarTablature http://classicalguitartablature.blogspot.com/
E|--------------------------------|--------------------------------|
B|--------------------------------|--------------------------------|
G|--------------------------------|--------------------------------|
D|--------------------------------|--------------------------------|
A|--------------------------------| 7------ 7----------------------|
E|-------------------- 7-- 9---- 7|--------------------------------|
ClassicalGuitarTablature http://classicalguitartablature.blogspot.com/
E|--------------------------------|--------------------------------|
B|--------------------------------|--------------------------------|
G|--------------------------------|--------------------------------|
D|--------------------------------|--------------------------------|
A|--------------------------------| 7------ 7----------------------|
E|-------------------- 7 9---- 7--|--------------------------------|
ClassicalGuitarTablature http://classicalguitartablature.blogspot.com/
ClassicalGuitarTablature http://classicalguitartablature.blogspot.com/
E|--------------------------------|---------------------------- 0--|
B|-------------------- 0 2---- 0--|-------------------- 0 2--------|
G|--------------------------------|---------------- 1--------------|
D|--------------------------------| 2------ 2----------------------|
A|--------------------------------|--------------------------------|
E|--------------------------------| 0------ 0------ 0--------------|
ClassicalGuitarTablature http://classicalguitartablature.blogspot.com/
E|---------------------------- 7--| 5------ 4------ 2--------------|
B|-------------------- 9 9--------| 2------ 2------ 2-- 5-- 5-- 2--|
G|--------------------------------| 2------ 2------ 2--------------|
D|--------------------------------|--------------------------------|
A| 7---------- 7------------------|--------------------------------|
E|---- 7-- 9----------------------| 2------ 2------ 2--------------|
ClassicalGuitarTablature http://classicalguitartablature.blogspot.com/
E| 0-- 0--------------------------|---------------------------- 0--|
B|------------ 2------ 0----------|-------------------- 0 2--------|
G|--------------------------------|---------------- 1--------------|
D|--------------------------------| 2------ 2----------------------|
A|---- 2-- 4----------------------|--------------------------------|
E| 0---------- 0------------------| 0------ 0------ 0--------------|
ClassicalGuitarTablature http://classicalguitartablature.blogspot.com/
E|---------------------------- 7--| 9------------------------------|
B|-------------------- 9 9--------| 9------ 9----------------------|
G|--------------------------------| 9------ 9------11-- 9 9--------|
D|--------------------------------|--------11------11----------11--|
A| 7---------- 7------------------| 9------ 9------ 9--------------|
E|---- 7-- 9----------------------|--------------------------------|
ClassicalGuitarTablature http://classicalguitartablature.blogspot.com/
E| 0-- 0--------------------------| 2-- 2-------------- 2------ 2--|
B|------------ 2------ 0----------| 2-- 2------ 5---- 2------------|
G|--------------------------------| 2-- 2------ 2------------------|
D|--------------------------------|------------ 2------------------|
A|---- 2-- 4----------------------|--------------------------------|
E| 0---------- 0------------------| 2---------- 2------------------|
ClassicalGuitarTablature http://classicalguitartablature.blogspot.com/
E| 4-- 4--------------------------| 5-- 5------ 4------ 5------ 5--|
B| 5-- 5------ 7------ 5------ 5--| 2-- 2------ 2------ 2----------|
G| 4-- 4------ 4------------------| 2-- 2------ 2------ 2----------|
D|------------ 6------------------|--------------------------------|
A|--------------------------------| 0---------- 0------ 0----------|
E| 4------------ 4----------------|--------------------------------|
ClassicalGuitarTablature http://classicalguitartablature.blogspot.com/
E| 4-- 7------ 4------------------| 2-- 2-------------- 2------ 2--|
B| 5-- 5------ 4-------------- 5--| 2-- 2------ 5---- 2------------|
G| 4-- 4------ 4------ 4----------| 2-- 2------ 2------------------|
D|--------------------------------|------------ 2------------------|
A|---------------------- 4--------|--------------------------------|
E| 4---------- 4------------------| 2---------- 2------------------|
ClassicalGuitarTablature http://classicalguitartablature.blogspot.com/
E| 4-- 4--------------------------| 5-- 5------ 4------ 5------ 5--|
B| 5-- 5------ 7------ 5------ 5--| 2-- 2------ 2------ 2----------|
G| 4-- 4------ 4------------------| 2-- 2------ 2------ 2----------|
D|------------ 6------------------|--------------------------------|
A|--------------------------------| 0---------- 0------ 0----------|
E| 4------------ 4----------------|--------------------------------|
ClassicalGuitarTablature http://classicalguitartablature.blogspot.com/
E| 9-- 7 7------ 7------------ 9--|-------- 9---------- 7------ 9--|
B| 7---------- 9 7---- 9----------|-------- 9------ 9---------- 9--|
G| 8------------------------------|---------------------------- 9--|
D|--------------------------------|--------------------------------|
A|--------------------------------|--------------------------------|
E| 7------ 7------ 7------ 7------|-------- 7----------------------|
ClassicalGuitarTablature http://classicalguitartablature.blogspot.com/
E|-------------- 7---- 9----------|--------------------------------|
B|------------ 9-------------- 9--|---------------- 7---- 9----10--|
G|--------------------------------|---- 9------ 9-------------- 9--|
D|--------------------------------|---------------------------- 7--|
A| 7---------- 7-------------- 7--|------------ 7------------------|
E|---- 7 9------------ 7-- 9------|------ 7 9------------ 7 9------|
ClassicalGuitarTablature http://classicalguitartablature.blogspot.com/
E|-------------------- 7----------|-------------------- 7-------- 9|
B|---- 9-- 7------ 9---------- 9--|---------------- 9------------ 9|
G|------------ 9------------------|---- 9------------------------ 9|
D|--------------------------------|--------------------------------|
A| 9---------- 9-------------- 7--|-------- 4-------------- 4------|
E|---- 7-- 9---------- 7-- 9------|---- 4------ 7------ 7----------|
ClassicalGuitarTablature http://classicalguitartablature.blogspot.com/
E|-------------- 7---- 9----------|--------------------------------|
B|------------ 9-------------- 9--|---------------- 7-- 9-- 7--10--|
G|--------------------------------|---- 9------ 9-------------- 9--|
D|--------------------------------|--------------------------------|
A| 7---------- 7-------------- 7--|------------ 7------------------|
E|---- 7 9------------ 7-- 9------|------ 7 9------------ 7 9------|
ClassicalGuitarTablature http://classicalguitartablature.blogspot.com/
E|--------------------------------|----------------12---- 9------ 7|
B|-- 9----------------------------|------------------------------ 9|
G|-------- 9-- 6-- 9-- 9------ 6--|------------------------------ 9|
D|--------------------------------|---- 9--------------------------|
A| 9---------- 9------------------|--------------------------------|
E|---- 7-- 9---------- 7-- 9---- 0|---- 4---------- 5------ 7------|
ClassicalGuitarTablature http://classicalguitartablature.blogspot.com/
E|---------------- 7-- 9----------|--------------------------------|
B|------------ 9-------------- 9--|---------------- 7---- 9----10--|
G|--------------------------------|---- 9-------- 9-- 9 9------ 9--|
D|--------------------------------|---------------------------- 7--|
A| 7---------- 7-------------- 7--|------------ 7------------------|
E|---- 7 9------------ 7-- 9------|------ 7 9------------ 7 9------|
ClassicalGuitarTablature http://classicalguitartablature.blogspot.com/
E|-------------------- 7----------|-------------------- 7------ 9--|
B|---- 9-- 7------ 9---------- 9--|---------------- 9---------- 9--|
G|------------ 9------------------|---- 9---------------------- 9--|
D|--------------------------------|--------------------------------|
A| 9---------- 9-------------- 7--|-------- 4-------------- 4------|
E|---- 7-- 9---------- 7-- 9------|---- 4------ 7------ 7----------|
ClassicalGuitarTablature http://classicalguitartablature.blogspot.com/
E|-------------- 7---- 9----------|--------------------------------|
B|------------ 9-------------- 9--|--------------------------------|
G|--------------------------------|---- 9-- 6---- 9----------------|
D|--------------------------------|--------------------------------|
A| 7---------- 7-------------- 7--|------------ 7------------------|
E|---- 7 9------------ 7-- 9------|------ 7 9------------ 7 9------|
ClassicalGuitarTablature http://classicalguitartablature.blogspot.com/
E| 4------ 0-- 2------ 4-- 2-- 2--|---- 0--------------------------|
B| 3---------- 2-------------- 3--|---- 3-- 3------ 3------ 3------|
G| 4---------- 2-------------- 1--|---------------- 1------ 1------|
D|--------------------------------|-------- 0------ 0------ 0------|
A|--------------------------------|--------------------------------|
E| 4---------- 2------------------| 0------------------------------|
ClassicalGuitarTablature http://classicalguitartablature.blogspot.com/
E|--------------------------------|--------------------------------|
B| 2------ 2------ 2------ 2------| 0------ 0------ 0------ 0------|
G| 2------ 2------ 2------ 2------| 1---- 1-------- 1------ 1------|
D| 2------ 2------ 2------ 2------| 0------ 0------ 0------ 0---- 0|
A|--------------------------------|--------------------------------|
E|--------------------------------|--------------------------------|
ClassicalGuitarTablature http://classicalguitartablature.blogspot.com/
E|------ 0-------- 0-- 0------12--|--------------------------------|
B| 0-- 2--------------------------|--------------------------------|
G|--------------------------------|-------- 9------ 9------ 9------|
D|--------------------------------|--------12------12------12------|
A|--------------------------------|--------------------------------|
E|--------------------------------| 0------------------------------|
ClassicalGuitarTablature http://classicalguitartablature.blogspot.com/
E|--------------------------------| 0------ 0------ 9------------ 7|
B|--------------------------------| 0------ 0------ 9--------------|
G| 9------ 9------ 9------ 9------|--------------------------------|
D|11------11------11------11------|--------------------------------|
A|--------------------------------|--------------------------------|
E|--------------------------------| 4------ 5------ 6------ 7------|
ClassicalGuitarTablature http://classicalguitartablature.blogspot.com/
E|--------------------------------| 0------ 0----------------------|
B|---- 9-- 7----------------------| 0------ 0----------------------|
G|------------ 9------------------| 1------ 1----------------------|
D|-------------------- 9--11-- 9--|--------------------------------|
A|--------------------------------|--------------------------------|
E| 9------10------10------10------| 0-------- 0--------------------|
ClassicalGuitarTablature http://classicalguitartablature.blogspot.com/
0 com

All I Want Is You (BASIC)

U2's tune fingerstyle chord melody guitar BASIC arrangement played in the key of C.
All I Want Is You-U2-BASIC Arrangement played in the key of C.
ClassicalGuitarTablature http://classicalguitartablature.blogspot.com/
E|--------------------------------|--------------------------------|
B| 1---- 1---- 1---------- 1------| 1---- 1---- 1---------- 1------|
G| 0---- 0---- 0---------- 0------| 2---- 2---- 2---------- 2------|
D| 2---- 2---- 2------ 2----------| 3---- 3---- 3---------- 3------|
A| 3---------- 3-------------- 3--| 3---------- 3------ 3------ 3--|
E|--------------------------------|--------------------------------|
ClassicalGuitarTablature http://classicalguitartablature.blogspot.com/
E|--------------------------------|--------------------------------|
B| 1---- 1---- 1---------- 1------| 1---- 1---- 1------------------|
G| 0---- 0---- 0---------- 0------| 2---- 2---- 2-------- 2---- 0--|
D| 2---- 2---- 2------ 2----------| 3---- 3---- 3---- 3-------- 2--|
A| 3-------- 3 3-------------- 3--| 3---------- 3------------------|
E|--------------------------------|--------------------------------|
ClassicalGuitarTablature http://classicalguitartablature.blogspot.com/
ClassicalGuitarTablature http://classicalguitartablature.blogspot.com/
E|--------------------------------|--------------------------------|
B|---------------------------- 1--|------ 1---- 1-------------- 3--|
G|---- 0------ 0---------- 2-- 2--|------ 2---- 2---------- 2------|
D|---- 2------ 2------ 2------ 3--|------ 3---- 3------ 3----------|
A| 3---------- 3------------------| 3---------- 3------------------|
E|--------------------------------|--------------------------------|
ClassicalGuitarTablature http://classicalguitartablature.blogspot.com/
E|---- 0---- 0---- 0--------------|--------------------------------|
B| 3-- 3---- 3-------- 3------ 3--|---- 1------ 1-------------- 3--|
G| 0---------- 0-------------- 2--|---- 2------ 2---- 2-- 2--------|
D| 2------------------------------|--------------------------------|
A| 3---------- 3------------------| 3---------- 3------------------|
E|--------------------------------|--------------------------------|
ClassicalGuitarTablature http://classicalguitartablature.blogspot.com/
E|---- 0---- 0---- 0--------------|--------------------------------|
B| 3-- 3---- 3-------- 3------ 3--|---- 1------ 1-------------- 3--|
G| 0---------- 0-------------- 2--|---- 2------ 2---- 2-- 2--------|
D| 2------------------------------|--------------------------------|
A| 3---------- 3------------------| 3---------- 3------------------|
E|--------------------------------|--------------------------------|
ClassicalGuitarTablature http://classicalguitartablature.blogspot.com/
E|---- 0---- 0--------------------|--------------------------------|
B| 3-- 3------ 3---- 3------ 1----|------ 1---- 1------------------|
G| 0---------- 0---- 0------ 2----|------ 2---- 2---------- 2-- 0--|
D| 2---------------- 2------ 3----|------ 3---- 3------ 3------ 2--|
A| 3---------- 3------------------| 3---------- 3------------------|
E|--------------------------------|--------------------------------|
ClassicalGuitarTablature http://classicalguitartablature.blogspot.com/
E|--------------------------------|--------------------------------|
B|---------------------------- 1--|---- 1------ 1-------- 1---- 3--|
G|------ 0---- 0---------- 2-- 2--|---- 2------ 2-------- 2--------|
D|------ 2---- 2------ 2------ 3--|------ 3---- 3---- 3------------|
A| 3---------- 3------------------|--------------------------------|
E|--------------------------------| 1---------- 1------------------|
ClassicalGuitarTablature http://classicalguitartablature.blogspot.com/
E|---- 0------ 0-- 0--------------|--------------------------------|
B| 3-- 3------ 3-- 3-- 3------ 3--|---- 1------ 1-------------- 3--|
G| 0-- 0------ 0-- 0-- 0------ 2--|---- 2------ 2---------- 2------|
D| 2------------------ 2------ 3--|---- 3------ 3------ 3----------|
A| 3---------- 3------------------|--------------------------------|
E|--------------------------------| 1---------- 1------------------|
ClassicalGuitarTablature http://classicalguitartablature.blogspot.com/
E|---- 0------ 0-- 0--------------|--------------------------------|
B| 3-- 3------ 3-- 3-- 3------ 3--|---- 1------ 1-------------- 3--|
G| 0-- 0------ 0-- 0-- 0------ 2--|---- 2------ 2---------- 2------|
D| 2------------------ 2------ 3--|---- 3------ 3------ 3----------|
A| 3---------- 3------------------|--------------------------------|
E|--------------------------------| 1---------- 1------------------|
ClassicalGuitarTablature http://classicalguitartablature.blogspot.com/
E|---- 0------ 3------------------|--------------------------------|
B| 3-- 3------ 3-------------- 1--|------ 1---- 1---------- 1-- 3--|
G| 0-- 0-------------- 2------ 2--|------ 2---- 2---------- 2------|
D| 2-------------------------- 3--|------ 3---- 3------ 3----------|
A| 3---------- 3------------------|--------------------------------|
E|--------------------------------| 1---------- 1------------------|
ClassicalGuitarTablature http://classicalguitartablature.blogspot.com/
E|---- 0------ 0-- 0--------------|--------------------------------|
B| 3-- 1------ 1-- 1-- 3------ 3--|---- 1------ 1---------- 1-- 3--|
G| 2-- 2------ 2-- 2---------- 2--|------ 2---- 2---------- 2-- 2--|
D| 2-------------------------- 3--|------ 3---- 3------ 3----------|
A| 0---------- 0------------------|--------------------------------|
E|--------------------------------| 1---------- 1------------------|
ClassicalGuitarTablature http://classicalguitartablature.blogspot.com/
E|---- 0------ 3------------------|--------------------------------|
B| 3-- 1------ 1-------------- 1--|------ 1---- 1------------------|
G| 2-- 2------ 2------ 2------ 2--|------ 2---- 2---------- 2-- 0--|
D| 2-------------------------- 3--|------ 3---- 3------ 3----------|
A| 0---------- 0------------------|--------------------------------|
E|--------------------------------| 1---------- 1------------------|
ClassicalGuitarTablature http://classicalguitartablature.blogspot.com/
E|--------------------------------|--------------------------------|
B|---------------------------- 1--|------ 1---- 1---------- 3-- 1--|
G|------ 0---- 0---------- 2-- 2--|------ 2---- 2------------------|
D|------ 2---- 2------ 2------ 3--|------ 3---- 3---- 3------------|
A| 3-------- 0 3------------------|--------------------------------|
E|--------------------------------| 1---------- 1------------------|
ClassicalGuitarTablature http://classicalguitartablature.blogspot.com/
E|--------------------------------|--------------------------------|
B|------ 1---- 1---------- 1------| 1---- 1---- 1------------------|
G|------ 0---- 0---------- 0------| 2---- 2---- 2---------- 2-- 0--|
D|------ 2---- 2------ 2----------| 3---- 3---- 3------ 3----------|
A| 3-------- 0 3-------------- 3--| 3------ 0-- 3------------------|
E|--------------------------------|--------------------------------|
ClassicalGuitarTablature http://classicalguitartablature.blogspot.com/
E|--------------------------------|--------------------------------|
B|------------ 1-------------- 1--|------------ 1---------- 3------|
G|-------- 0------ 0------ 2------|-------- 2---------- 2----------|
D|---- 2-------------- 2----------|---- 3---------- 3------------ 2|
A|--------------------------------|--------------------------------|
E| 3------------------------------| 1---------------------------- 0|
ClassicalGuitarTablature http://classicalguitartablature.blogspot.com/
E|--------------------------------|--------------------------------|
B| 1---------- 1------------------|-- 3---------------- 1----------|
G| 0------ 0-------- 4-------- 4--|-------------------- 0----------|
D|---- 2------------ 3---- 3------|------------------ 2------------|
A|------------------ 5------------|------------------ 3------------|
E|--------------------------------|--------------------------------|
ClassicalGuitarTablature http://classicalguitartablature.blogspot.com/
0 com

God Only Knows (BASIC)

The Beach Boys' tune fingerstyle chord melody guitar BASIC arrangement played in the key of E.
God Only Knows-The Beach Boys-BASIC Arrangement played in the key of E.
ClassicalGuitarTablature http://classicalguitartablature.blogspot.com/
E|--------------------------------|------------------------ 7------|
B|-------- 2------------------ 4--| 5-------------------- 5--------|
G| 2------ 2----------------------| 4------ 4----------------------|
D| 2------ 2----------------------| 6------ 6----------------------|
A| 0------ 0------ 0------ 0------|--------------------------------|
E|--------------------------------| 4------ 4------ 4------ 4------|
ClassicalGuitarTablature http://classicalguitartablature.blogspot.com/
E| 5------------------------------|--------------------------------|
B| 2------------------------------|--------------------------------|
G| 2------------ 2----------------| 4------------ 4----------------|
D|-------------- 2----------------| 2-------------- 2--------------|
A|--------------------------------|--------------------------------|
E| 2---- 2------ 2-------- 2------| 4---- 4-------- 4------ 4------|
ClassicalGuitarTablature http://classicalguitartablature.blogspot.com/
ClassicalGuitarTablature http://classicalguitartablature.blogspot.com/
E|--------------------------------|------------------------ 7------|
B|-------- 2------------------ 4--| 5-------------------- 5--------|
G| 2------ 2----------------------| 4------ 4----------------------|
D| 2------------------------------| 6------ 6----------------------|
A| 0------ 0------ 0------ 0------|--------------------------------|
E|--------------------------------| 4------ 4------ 4------ 4------|
ClassicalGuitarTablature http://classicalguitartablature.blogspot.com/
E| 5------------------------------|--------------------------------|
B| 2------------------------------| 2---------- 2-- 4-- 5----------|
G| 2------------ 2----------------| 2---------- 2-- 2-- 4----------|
D|-------------- 2----------------| 2---------- 2-- 4-- 3----------|
A|--------------------------------|--------------------------------|
E| 2---- 2------ 2-------- 2------| 0------ 0------ 2-- 3----------|
ClassicalGuitarTablature http://classicalguitartablature.blogspot.com/
E|--------------------------------|--------------------------------|
B|---------------- 3-- 2------ 3--| 2------------------------------|
G| 2-------------- 2-- 2------ 2--|-------- 4---------- 4----------|
D| 4-------------- 4-- 4------ 4--|------------ 4-------------- 4--|
A| 0------ 0------ 0------ 0------| 2------ 2------ 2------ 2------|
E|--------------------------------|--------------------------------|
ClassicalGuitarTablature http://classicalguitartablature.blogspot.com/
E|--------------------------------|---- 2--------------------------|
B|---------------------------- 2--|------------------------ 2------|

G|------------ 2-- 2------ 2------|------------ 2-- 4--------------|
D|---- 4-------------- 6----------|---------------- 4--------------|
A|--------------------------------| 0------ 0------ 0------ 0------|
E| 2------ 2------ 2------ 2------|--------------------------------|
ClassicalGuitarTablature http://classicalguitartablature.blogspot.com/
E|--------------------------------| 2------------------------------|
B|-------------- 5---- 4------ 5--| 4------------------------------|
G|---- 4---------------------- 4--| 2------ 2-- 4------ 5----------|
D|---- 6------ 6-------------- 6--|---- 4-- 4-- 4------ 4------ 4--|
A|--------------------------------| 3------ 3------ 3------ 3------|
E| 7------ 7---- 7-------- 7------|--------------------------------|
ClassicalGuitarTablature http://classicalguitartablature.blogspot.com/
E|--------------------------------|---- 4--------------------------|
B|------------ 5-- 5-- 4------ 5--|---- 5---------- 4-- 5----------|
G|------------ 4-- 4-- 4------ 4--|---- 6------ 6-- 6--------------|
D|---- 6---------- 6-- 6------ 6--|---------------- 6---------- 6--|
A|--------------------------------|--------------------------------|
E| 7------ 7------ 7------ 7------| 6------ 6------ 6------ 6------|
ClassicalGuitarTablature http://classicalguitartablature.blogspot.com/
E|--------------------------------|--------------------------------|
B|---------------- 2------ 2------|---- 5--------------------------|
G|---- 2-------------- 4 2---- 4--|------------ 4------------------|
D|---- 2------ 2-------------- 6--|---------------- 7---- 6---- 2--|
A| 0------ 0------ 0------ 0------|--------------------------------|
E|--------------------------------| 4------ 4------ 4------ 4------|
ClassicalGuitarTablature http://classicalguitartablature.blogspot.com/
E|--------------------------------|--------------------------------|
B|--------------------------------|--------------------------------|
G|------------ 2------ 2----------| 1-------------- 2-- 4----------|
D|---- 4------ 4------ 4------ 4--| 2-------------- 2-- 2----------|
A|--------------------------------|--------------------------------|
E| 2------ 2------ 2------ 2------| 0-------------- 2-- 3----------|
ClassicalGuitarTablature http://classicalguitartablature.blogspot.com/
E|--------------------------------|--------------------------------|
B|---------------- 3-- 2------ 3--| 2------------------------------|
G| 2-------------- 2-- 2------ 2--|-------- 4---------- 4----------|
D| 4-------------- 4-- 4------ 4--|------------ 4-------------- 4--|
A| 0------ 0------ 0------ 0------| 2------ 2------ 2------ 2------|
E|--------------------------------|--------------------------------|
ClassicalGuitarTablature http://classicalguitartablature.blogspot.com/
E|--------------------------------|---- 2--------------------------|
B|---------------------------- 2--|------------------------ 2------|
G|------------ 2-- 2------ 2------|------------ 2-- 4--------------|
D|---- 4-------------- 6----------|---------------- 4--------------|
A|--------------------------------| 0------ 0------ 0------ 0------|
E| 2------ 2------ 2------ 2------|--------------------------------|
ClassicalGuitarTablature http://classicalguitartablature.blogspot.com/
E|--------------------------------| 2------------------------------|
B|-------------- 5---- 4------ 5--| 4------------------------------|
G|---- 4---------------------- 4--| 2------ 2-- 4------ 5----------|
D|---- 6------ 6-------------- 6--|---- 4-- 4-- 4------ 4------ 4--|
A|--------------------------------| 3------ 3------ 3------ 3------|
E| 7------ 7---- 7-------- 7------|--------------------------------|
ClassicalGuitarTablature http://classicalguitartablature.blogspot.com/
E|--------------------------------|---- 4--------------------------|
B|------------ 5-- 5-- 4------ 5--|---- 5---------- 4-- 5----------|
G|------------ 4-- 4-- 4------ 4--|---- 6------ 6-- 6--------------|
D|---- 6---------- 6-- 6------ 6--|---------------- 6---------- 6--|
A|--------------------------------|--------------------------------|
E| 7------ 7------ 7------ 7------| 6------ 6------ 6------ 6------|
ClassicalGuitarTablature http://classicalguitartablature.blogspot.com/
E|--------------------------------|--------------------------------|
B|---------------- 2------ 2------|---- 5--------------------------|
G|---- 2-------------- 4 2---- 4--|------------ 4------------------|
D|---- 2------ 2-------------- 6--|---------------- 7---- 6---- 2--|
A| 0------ 0------ 0------ 0------|--------------------------------|
E|--------------------------------| 4------ 4------ 4------ 4------|
ClassicalGuitarTablature http://classicalguitartablature.blogspot.com/
E|--------------------------------|-------- 9------------------ 9--|
B|--------------------------------|10------------------10----------|
G|------------ 2------ 2----------|--------------------------------|
D|---- 4------ 4------ 4------ 4--|--------------------------------|
A|--------------------------------|-------- 7---------- 9------ 7--|
E| 2------ 2------ 2------ 2------| 0------------------------------|
ClassicalGuitarTablature http://classicalguitartablature.blogspot.com/
E| 7-------- 5--------------------|-------- 9------------------ 9--|
B|---------------- 8 6-- 5--------|10------------------10----------|
G|-------------------------- 7----|--------------------------------|
D|---------------------- 5-- 7----|--------------------------------|
A|10-------------- 5 8------------|-------- 7---------- 9------ 7--|
E|------------ 8------------------| 0------------------------------|
ClassicalGuitarTablature http://classicalguitartablature.blogspot.com/
E| 7-------- 5--------------------|--------------------------------|
B|---------------- 8 6-- 5--------|------------------------ 3------|
G|-------------------------- 7-- 4|------------ 4------ 4----------|
D|---------------------- 5-- 7----|---- 5------ 5------ 5----------|
A|10-------------- 5 8---------- 5|------ 5-------- 5------ 5------|
E|------------ 8------------------|--------------------------------|
ClassicalGuitarTablature http://classicalguitartablature.blogspot.com/
E|------------------------ 5------| 2------------------------------|
B| 5------------------------------| 3---------- 2-- 3-- 5-- 3------|
G| 7------------------------------|-------- 4------ 2--------------|
D| 5-- 5------ 5------ 5----------|---- 4---------- 4---------- 4--|
A| 7------ 7------ 7------ 7------|---------------- 2------ 2------|
E|--------------------------------| 2------ 2----------------------|
ClassicalGuitarTablature http://classicalguitartablature.blogspot.com/
E|--------------------------------|--------------------------------|
B| 0---------------------- 0------|--------------------------------|
G|---- 1---------- 1-- 2----------| 2---------- 1-- 2--------------|
D|-------- 2-- 4------------------|---- 2-------------- 2------ 2--|
A| 5------ 5------ 5------ 5------|--------------------------------|
E|--------------------------------| 0------ 0------ 0------ 0------|
ClassicalGuitarTablature http://classicalguitartablature.blogspot.com/
E|--------------------------------|--------------------------------|
B|-------- 0----------------------|--------------------------------|
G| 1-- 2-------------- 2-- 1------| 2---------- 1-- 2---------- 1--|
D| 0-- 0------ 0------------------|---- 2-------------- 2----------|
A|--------------------------------|--------------------------------|
E| 1------ 1------ 1------ 1------| 0------ 0------ 0------ 0------|
ClassicalGuitarTablature http://classicalguitartablature.blogspot.com/
E|---------------- 5--------------|-------------------- 0----------|
B|------------ 4------------------|-------------- 7------------ 7--|
G|---- 6---------------------- 6--|---- 7-------- 7----------------|
D| 4------------------ 4----------|---- 7------ 7 7----------------|
A| 6------ 6------ 6------ 6------| 5------ 5------ 5------ 5------|
E|--------------------------------|--------------------------------|
ClassicalGuitarTablature http://classicalguitartablature.blogspot.com/
E|---- 5--------------------------|--------------------------------|
B| 5-- 5------ 5-- 3------ 2------|---- 0--------------------------|
G| 2-- 2------ 2-- 2------ 2-- 2--|-------------------- 2------ 2--|
D| 2-------------- 2-- 2------ 0--|------------ 0-------------- 0--|
A| 4------ 4------ 4------ 4------| 2------ 2------ 2------ 2------|
E|--------------------------------|--------------------------------|
ClassicalGuitarTablature http://classicalguitartablature.blogspot.com/
E|--------------------------------|--------------------------------|
B|---------------- 3-- 2------ 3--| 2------------------------------|
G|---- 2---------- 2-- 2------ 2--|-------- 4---------- 4----------|
D|---- 0------ 0-- 0-- 0------ 0--|------------ 4-------------- 4--|
A| 0------ 0------ 0------ 0------| 2------ 2------ 2------ 2------|
E|--------------------------------|--------------------------------|
ClassicalGuitarTablature http://classicalguitartablature.blogspot.com/
E|--------------------------------|---- 2--------------------------|
B|---------------------------- 2--|------------------------ 2------|
G|------------ 2-- 2------ 2------|------------ 2-- 4--------------|
D|---- 4-------------- 6----------|---------------- 4--------------|
A|--------------------------------| 0------ 0------ 0------ 0------|
E| 2------ 2------ 2------ 2------|--------------------------------|
ClassicalGuitarTablature http://classicalguitartablature.blogspot.com/
E|--------------------------------| 2------------------------------|
B|-------------- 5---- 4------ 5--| 4------------------------------|
G|---- 4---------------------- 4--| 2------ 2-- 4------ 5----------|
D|---- 6------ 6-------------- 6--|---- 4-- 4-- 4------ 4------ 4--|
A|--------------------------------| 3------ 3------ 3------ 3------|
E| 7------ 7---- 7-------- 7------|--------------------------------|
ClassicalGuitarTablature http://classicalguitartablature.blogspot.com/
E|--------------------------------|---- 4--------------------------|
B|------------ 5-- 5-- 4------ 5--|---- 5---------- 4-- 5----------|
G|------------ 4-- 4-- 4------ 4--|---- 6------ 6-- 6--------------|
D|---- 6---------- 6-- 6------ 6--|---------------- 6---------- 6--|
A|--------------------------------|--------------------------------|
E| 7------ 7------ 7------ 7------| 6------ 6------ 6------ 6------|
ClassicalGuitarTablature http://classicalguitartablature.blogspot.com/
E|--------------------------------|--------------------------------|
B|---------------- 2------ 2------|---- 5--------------------------|
G|---- 2-------------- 4 2---- 4--|------------ 4------------------|
D|---- 2------ 2-------------- 6--|---------------- 7---- 6---- 2--|
A| 0------ 0------ 0------ 0------|--------------------------------|
E|--------------------------------| 4------ 4------ 4------ 4------|
ClassicalGuitarTablature http://classicalguitartablature.blogspot.com/
E|--------------------------------|--------------------------------|
B|---------------- 2---------- 2--|---- 5--------------------------|
G|---------- 2---- 2-- 4------ 2--| 4---------- 4------------------|
D|---- 2------ 2-- 4-- 4------ 4--| 6-------------- 7---- 6---- 2--|
A|--------------------------------|--------------------------------|
E| 2------ 2------ 2------ 2------| 4------ 4------ 4------ 4------|
ClassicalGuitarTablature http://classicalguitartablature.blogspot.com/
E|--------------------------------|--------------------------------|
B|-------------- 2------------ 2--|---- 5--------------------------|
G|---- 2-------------- 4----------| 4---------- 4------------------|
D|---- 2------ 2------------------| 6-------------- 7---- 6---- 2--|
A| 0------ 0------ 0------ 0------|--------------------------------|
E|--------------------------------| 4------ 4------ 4------ 4------|
ClassicalGuitarTablature http://classicalguitartablature.blogspot.com/
E|--------------------------------|--------------------------------|
B|---------------- 2---------- 2--|---- 5--------------------------|
G|---------- 2---- 2-- 4------ 2--| 4---------- 4------------------|
D|---- 2------ 2-- 4-- 4------ 4--| 6-------------- 7---- 6---- 2--|
A|--------------------------------|--------------------------------|
E| 2------ 2------ 2------ 2------| 4------ 4------ 4------ 4------|
ClassicalGuitarTablature http://classicalguitartablature.blogspot.com/
E|--------------------------------|--------------------------------|
B|-------------- 2------------ 2--|---- 5--------------------------|
G|---- 2-------------- 4----------| 4---------- 4------------------|
D|---- 2------ 2------------------| 6-------------- 7---- 6---- 2--|
A| 0------ 0------ 0------ 0------|--------------------------------|
E|--------------------------------| 4------ 4------ 4------ 4------|
ClassicalGuitarTablature http://classicalguitartablature.blogspot.com/
E|--------------------------------|------ 0------------------------|
B|---------------- 2---------- 2--| 0---------- 0------------------|
G|---------- 2---- 2-- 4------ 2--| 1---------------- 2------ 1----|
D|---- 2------ 2-- 4-- 4------ 4--| 2------------------------------|
A|--------------------------------|--------------------------------|
E| 2------ 2------ 2------ 2---- 0|--------------------------------|
ClassicalGuitarTablature http://classicalguitartablature.blogspot.com/
E|--------------------------------|--------------------------------|
B|--------------------------------|--------------------------------|
G|--------------------------------|--------------------------------|
D|------ 2------------------------|--------------------------------|
A|--------------------------------|--------------------------------|
E|------------------------ 0------|--------------------------------|
ClassicalGuitarTablature http://classicalguitartablature.blogspot.com/