To celebrate the anniversary, I am giving you (finally...) : iPhone LickByNeck !!!!!!

Caught Up In The Rapture (BASIC)

Anita Baker's tune fingerstyle chord melody guitar BASIC arrangement played in the key of D.
Caught Up In The Rapture-Anita Baker-BASIC Arrangement played in the key of D.
ClassicalGuitarTablature http://classicalguitartablature.blogspot.com/
E| 5------------------------ 5 6--| 8------------------------------|
B| 5---------- 5------------------|11--11--10-- 8------ 5------ 6--|
G| 4------ 4---- 4-------- 4------|10--10--10-- 5------ 5------ 7--|
D|---- 4-------------- 4----------|---- 8------ 5------ 5------ 8--|
A| 5------------------------------|10------------------------------|
E|--------------------------------|------------ 5-------------- 8--|
ClassicalGuitarTablature http://classicalguitartablature.blogspot.com/
E|--------------------------------|-------------------- 5------ 5--|
B|------------ 6------------ 6 5--| 3-------------------------- 5--|
G|------ 7------------ 7----------| 3---------- 2-------------- 4--|
D|---- 8------------------ 8------| 3---------- 2------------------|
A|--------------------------------|---------------------------- 5--|
E|--------------------------------| 3---------- 5------------------|
ClassicalGuitarTablature http://classicalguitartablature.blogspot.com/
ClassicalGuitarTablature http://classicalguitartablature.blogspot.com/
E|-------------------------- 5 6--| 8------------------------------|
B|------------ 5------------------|11--11--10-- 8------ 5------ 6--|
G|-------- 4-------- 4------------|10--10--10-- 5------ 5------ 7--|
D|---- 4---------------- 4--------|---- 8------ 5------ 5------ 8--|
A|--------------------------------|10------------------------------|
E|--------------------------------|------------ 5-------------- 8--|
ClassicalGuitarTablature http://classicalguitartablature.blogspot.com/
E|--------------------------------|---------------------- 0--------|
B|------------ 6------------ 6 5--|------------------ 3-------- 7--|
G|------ 7------------ 7----------| 3---------- 4-------------- 6--|
D|---- 8------------------ 8------| 3---------- 5-------------- 7--|
A|--------------------------------|--------------------------------|
E|--------------------------------| 3---------- 5------------------|
ClassicalGuitarTablature http://classicalguitartablature.blogspot.com/
E|-------------------- 5------ 3--|---- 2---------------------- 2--|
B|------ 7---- 7-------------- 2--|---- 2------ 2------ 3-- 5-- 3--|
G|------ 6-- 6---------------- 2--|---- 2------ 2-------------- 4--|
D|------ 7---- 7------------------|------------ 2------------------|
A| 5---------- 5------------------|--------------------------------|
E|--------------------------------| 2---------- 2------------------|
ClassicalGuitarTablature http://classicalguitartablature.blogspot.com/
E|------ 3---- 0-------- 2---- 0--|---------------------- 0--------|
B|-------- 3-- 3------ 3------ 3--|------ 3---- 3------ 3------ 7--|
G|---- 4 4---- 4-------------- 3--|------ 3---- 3-------------- 6--|
D|--------------------------------|------ 2---- 2-------------- 7--|
A|--------------------------------| 3---------- 3------------------|
E| 3-------------- 3--------------|--------------------------------|
ClassicalGuitarTablature http://classicalguitartablature.blogspot.com/
E|-------------------- 5------ 3--|---- 2---------------------- 2--|
B|------ 7---- 7-------------- 2--|---- 2------ 2------ 3-- 5-- 3--|
G|------ 6-- 6---------------- 2--|---- 2------ 2-------------- 4--|
D|------ 7---- 7------------------|------------ 2------------------|
A| 5---------- 5------------------|--------------------------------|
E|--------------------------------| 2---------- 2------------------|
ClassicalGuitarTablature http://classicalguitartablature.blogspot.com/
E|------ 3---- 0-------- 2---- 0--|--------------------------------|
B|-------- 3-- 3------ 3------ 3--|--------------------------------|
G|---- 4 4---- 4-------------- 3--|------ 3---- 3---------- 3------|
D|--------------------------------|------ 2---- 2------ 2----------|
A|------------------------------ 3|------------ 3-------------- 3--|
E| 3-------------- 3--------------|--------------------------------|
ClassicalGuitarTablature http://classicalguitartablature.blogspot.com/
E|--------------------------------|-- 2----------------------------|
B|-------- 7---- 5---- 3------ 5--|-- 5------ 3---------- 3--------|
G|------ 4-------- 3-- 3------ 2--|---- 2---- 1---------- 1--------|
D|---- 5---------- 2-- 2------ 4--|---------- 0------ 0------------|
A| 4---------- 4-------------- 2--|--------------------------------|
E|---------------- 2--------------|------------ 0-------------- 0--|
ClassicalGuitarTablature http://classicalguitartablature.blogspot.com/
E|---------------- 0-------- 5----|---- 2--------------------------|
B|------ 7-------- 3-- 3------ 3--|---- 3------ 5------ 3----------|
G|---- 5---------- 5-- 5---- 4----|---- 4------ 3------ 3----------|
D|---- 5-------------- 5----------|------------ 3------ 3----------|
A|---------------- 5--------------|------------ 3-------------- 3 4|
E| 5---------- 5---------------- 3|--------------------------------|
ClassicalGuitarTablature http://classicalguitartablature.blogspot.com/
E|--------------------------------|---- 2------------ 0-- 2---- 0 2|
B|------ 7-------- 5-- 3------ 5--|---- 5------ 3------------------|
G|------ 4-------- 3-- 3------ 2--|------------ 1------------------|
D|---- 5---------- 2-- 2------ 4--|------------ 0------------------|
A|------------ 4-------------- 2--|------------------------------ 0|
E|---------------- 2--------------|------------ 0------------------|
ClassicalGuitarTablature http://classicalguitartablature.blogspot.com/
E|--------------------------------|------------------ 0-- 2---- 5--|
B|-- 3-------------------------- 0|-------- 2-- 3---- 3---- 3-- 5--|
G|---------------- 0---- 0------ 0|------ 0---- 0---- 0---- 0-- 6--|
D|---------------- 0---- 0------ 0|------------ 0------------------|
A|---- 0-- 0-- 0-- 0-- 0-- 0-- 0--| 0-- 0-- 0-- 0-- 0-- 0-- 0------|
E|--------------------------------|--------------------------------|
ClassicalGuitarTablature http://classicalguitartablature.blogspot.com/
E|--------------------------------| 5-- 5-- 5----------------------|
B|------------ 5------------------| 5-- 5-- 5-- 7-- 5---------- 0--|
G|------ 6---- 6---------- 6------| 6-- 6-- 6-- 6------ 6-- 7-- 0--|
D|------ 7---- 7------ 7-- 7------|------------ 7-------------- 0--|
A|--------------------------------|--------------------------------|
E| 7---------- 7-------------- 7--| 7---------- 7------------------|
ClassicalGuitarTablature http://classicalguitartablature.blogspot.com/
E|--------------------------------|------------------------ 2------|
B|--------------------------------| 0---- 2---- 3------ 5 3---- 5 5|
G|------------ 0------------------| 0------ 0-- 3-------------- 6--|
D|------------ 0---- 0------------| 0---------- 2-------------- 7--|
A|--------------------------------|--------------------------------|
E| 3---- 3---- 3-------- 3-- 2----| 0---------- 2------------------|
ClassicalGuitarTablature http://classicalguitartablature.blogspot.com/
E|--------------------------------| 5-- 5-- 5----------------------|
B|--------------------------------| 5-- 5-- 5-- 7-- 5---------- 0--|
G|------------ 6---------- 6------| 6-- 6-- 6-- 6------ 6-- 7-- 0--|
D|------ 7---- 7------ 7-- 7------|------------ 7-------------- 0--|
A|--------------------------------|--------------------------------|
E| 7---------- 7-------------- 7--| 7---------- 7------------------|
ClassicalGuitarTablature http://classicalguitartablature.blogspot.com/
E|--------------------------------|------------------------ 2-- 5--|
B|--------------------------------| 0---- 2---- 3------ 5 3---- 5--|
G|------------ 0------------------| 0------ 0-- 3-------------- 6--|
D|------------ 0---- 0------------| 0---------- 2------------------|
A|--------------------------------|--------------------------------|
E| 3---- 3---- 3-------- 3-- 2----| 0---------- 2------------------|
ClassicalGuitarTablature http://classicalguitartablature.blogspot.com/
E|--------------------------------| 5-- 5-- 5----------------------|
B|------------ 5------------------| 5-- 5-- 5-- 7-- 5---------- 0--|
G|------ 6---- 6---------- 6------| 6-- 6-- 6-- 6------ 6-- 7-- 0--|
D|------ 7---- 7------ 7-- 7------|------------ 7-------------- 0--|
A|--------------------------------|--------------------------------|
E| 7---------- 7-------------- 7--| 7---------- 7------------------|
ClassicalGuitarTablature http://classicalguitartablature.blogspot.com/
E|--------------------------------|------------------ 0---- 2-- 5--|
B|--------------------------------| 0---- 2---- 3-------------- 5--|
G|------------ 0------------------| 0---- 0---- 0-------------- 4--|
D|------------ 0---- 0------------| 0---- 0---- 0------------------|
A|--------------------------------|------------ 0------------------|
E| 3---- 3---- 3-------- 3-- 2----| 0------------------------------|
ClassicalGuitarTablature http://classicalguitartablature.blogspot.com/
E|-------------------------- 5 6--| 8------------------------------|
B|---- 5------ 5-------- 5--------|11--11--10-- 8------ 5------ 6--|
G|------ 4---- 4------------------|10--10--10-- 5------ 5------ 7--|
D|------ 4---- 4---- 4------------|---- 8------ 5------ 5------ 8--|
A| 5---------- 5------------------|10------------------------------|
E|--------------------------------|------------ 5-------------- 8--|
ClassicalGuitarTablature http://classicalguitartablature.blogspot.com/
E|--------------------------------|-------------------- 5------ 5--|
B|------------ 6------------ 6 5--| 3-------------------------- 5--|
G|------ 7------------ 7----------| 3---------- 2-------------- 4--|
D|---- 8------------------ 8------| 3---------- 2------------------|
A|--------------------------------|---------------------------- 5--|
E|--------------------------------| 3---------- 5------------------|
ClassicalGuitarTablature http://classicalguitartablature.blogspot.com/
E|-------------------------- 5 6--| 8------------------------------|
B|------------ 5------------------|11--11--10-- 8------ 5------ 6--|
G|-------- 4-------- 4------------|10--10--10-- 5------ 5------ 7--|
D|---- 4---------------- 4--------|---- 8------ 5------ 5------ 8--|
A|--------------------------------|10------------------------------|
E|--------------------------------|------------ 5-------------- 8--|
ClassicalGuitarTablature http://classicalguitartablature.blogspot.com/
E|--------------------------------|---------------------- 0--------|
B|------------ 6------------ 6 5--|------------------ 3------------|
G|------ 7------------ 7----------| 3---------- 4------------------|
D|---- 8------------------ 8------| 3---------- 5------------------|
A|--------------------------------|------------------------------ 5|
E|--------------------------------| 3---------- 5------------------|
ClassicalGuitarTablature http://classicalguitartablature.blogspot.com/
E|-- 2----------------------------|--------------------------------|
B|-- 5----------------------------|--------------------------------|
G| 2---------- 2------------------|--------------------------------|
D|------ 4------------------------|--------------------------------|
A|--------------------------------|--------------------------------|
E|--------------------------------|--------------------------------|
ClassicalGuitarTablature http://classicalguitartablature.blogspot.com/

0 ความคิดเห็น:

แสดงความคิดเห็น