To celebrate the anniversary, I am giving you (finally...) : iPhone LickByNeck !!!!!!

Don't Stop Believin / Glee Theme ' (BASIC)

Journey's tune fingerstyle chord melody guitar BASIC arrangement played in the key of E.
You need to install the Flash plugin - http://www.webestools.com/
Don't Stop Believin'-Journey-BASIC ARRANGEMENT played in the key of E.
ClassicalGuitarTablature http://classicalguitartablature.blogspot.com/
E| 0------ 0------ 0------ 0------| 2------ 2------ 2--------------|
B|---- 0------ 0------ 0----------| 4---------------------- 4------|
G|---------------------------- 4--|---- 4------ 4------ 4------ 4--|
D|--------------------------------|---------------------- 4--------|
A|---------------------------- 2--|-------------------- 4-- 6-- 4--|
E| 0------------------ 2-- 4------|--------------------------------|
ClassicalGuitarTablature http://classicalguitartablature.blogspot.com/
E|--------------------------------|--------------------------------|
B| 5------ 5------ 5------ 5-- 0--| 2------ 2------ 2--------------|
G|---- 4---- 4------ 4------------|---- 2------ 2---------- 6-- 2--|
D|--------------------------------|-------------------- 7----------|
A|-------------------- 6-- 7-- 0--|-------------------- 6-- 7------|
E|--------------------------------|---------------------------- 0--|
ClassicalGuitarTablature http://classicalguitartablature.blogspot.com/
ClassicalGuitarTablature http://classicalguitartablature.blogspot.com/
E| 0------ 0------ 0------ 0------| 2------ 2------ 2--------------|
B|---- 0------ 0------ 0----------| 4---------------------- 4------|
G| 1-------------------------- 4--|---- 4------ 4------ 4------ 4--|
D|--------------------------------|---------------------- 4---- 6--|
A|---------------------------- 2--|-------------------- 4-- 6------|
E|-------------------- 2-- 4------|---------------------------- 4--|
ClassicalGuitarTablature http://classicalguitartablature.blogspot.com/
E|--------------------------------|--------------------------------|
B| 4------ 4------ 4------ 4-- 0--| 2------ 2------ 2--------------|
G|---- 4------ 4------ 4----------|---- 2------ 2---------- 6------|
D|-------------------- 6----------|-------------------- 7------ 7--|
A|---------------------------- 0--|-------------------- 6-- 7------|
E|------------------------ 4------|--------------------------------|
ClassicalGuitarTablature http://classicalguitartablature.blogspot.com/
E| 0------ 0------ 0------ 4------| 2-- 2------ 4------------------|
B|---- 0------ 0------ 0------ 5--|------------------------ 7------|
G|--------------------------------|------------------ 4-------- 4--|
D|--------------------------------|--------------------------------|
A|---------------------------- 2--|-------------------- 4-- 6---- 4|
E| 0---------------------- 4------|--------------------------------|
ClassicalGuitarTablature http://classicalguitartablature.blogspot.com/
E|--------------------------------| 7-- 7------ 4------------------|
B| 5------ 5---------- 5-- 5-- 5--|-------------------- 7----------|
G|---- 4------ 4-- 6---------- 6--|--------------------------------|
D|--------------------------------|--------------------------------|
A|-------------------- 6-- 7-- 0--|-------------------- 6-- 7------|
E|--------------------------------|--------------------------------|
ClassicalGuitarTablature http://classicalguitartablature.blogspot.com/
E| 0------ 0------ 0------ 4------| 2-- 2------ 4------------------|
B|---- 0------ 0------ 0------ 5--|------------------ 7------ 5-- 7|
G|--------------------------------|--------------------------------|
D|--------------------------------|--------------------------------|
A|---------------------------- 2--|------------------ 4---- 6------|
E| 0---------------------- 4------|--------------------------------|
ClassicalGuitarTablature http://classicalguitartablature.blogspot.com/
E|---------- 4------------ 0------|--------------------------------|
B|-------- 4------ 4--------------|--------------------------------|
G|---- 4--------------------------| 6------ 6------ 6------ 6------|
D|-------------------- 6----------|---- 7------ 7------ 7------ 7--|
A|--------------------------------|-------------------- 6-- 7------|
E| 4---------------------- 4-- 5--|--------------------------------|
ClassicalGuitarTablature http://classicalguitartablature.blogspot.com/
E| 0------ 0------ 0------ 4------| 2-- 2------ 4------------------|
B|---- 0------ 0------ 0------ 5--|------------------------ 7------|
G|--------------------------------|------------------ 4-------- 4--|
D|--------------------------------|--------------------------------|
A|---------------------------- 2--|-------------------- 4-- 6---- 4|
E| 0---------------------- 4------|--------------------------------|
ClassicalGuitarTablature http://classicalguitartablature.blogspot.com/
E|--------------------------------| 7-- 7------ 4------------------|
B| 5------ 5---------- 5-- 5-- 5--|-------------------- 7----------|
G|---- 4------ 4-- 6---------- 6--|--------------------------------|
D|--------------------------------|--------------------------------|
A|-------------------- 6-- 7-- 0--|-------------------- 6-- 7------|
E|--------------------------------|--------------------------------|
ClassicalGuitarTablature http://classicalguitartablature.blogspot.com/
E| 0------ 0------ 0------ 4------| 2-- 2------ 4------------------|
B|---- 0------ 0------ 0------ 5--|------------------ 7------ 5-- 7|
G|--------------------------------|--------------------------------|
D|--------------------------------|--------------------------------|
A|---------------------------- 2--|------------------ 4---- 6------|
E| 0---------------------- 4------|--------------------------------|
ClassicalGuitarTablature http://classicalguitartablature.blogspot.com/
E|---------- 4------------ 0------|--------------------------------|
B|-------- 4------ 4--------------|--------------------------------|
G|---- 4--------------------------| 6------ 6------ 6------ 6------|
D|-------------------- 6----------|---- 7------ 7------ 7------ 7--|
A|--------------------------------|-------------------- 6-- 7------|
E| 4---------------------- 4-- 5--|--------------------------------|
ClassicalGuitarTablature http://classicalguitartablature.blogspot.com/
E| 0------ 0------ 0------ 0------| 2------ 2------ 2--------------|
B|---- 0------ 0------ 0----------| 4---------------------- 4------|
G|---------------------------- 4--|---- 4------ 4------ 4------ 4--|
D|--------------------------------|---------------------- 4--------|
A|---------------------------- 2--|-------------------- 4-- 6-- 4--|
E| 0------------------ 2-- 4------|--------------------------------|
ClassicalGuitarTablature http://classicalguitartablature.blogspot.com/
E|--------------------------------|--------------------------------|
B| 5------ 5------ 5------ 5-- 0--| 2------ 2------ 2--------------|
G|---- 4---- 4------ 4------------|---- 2------ 2---------- 6-- 2--|
D|--------------------------------|-------------------- 7----------|
A|-------------------- 6-- 7-- 0--|-------------------- 6-- 7------|
E|--------------------------------|---------------------------- 0--|
ClassicalGuitarTablature http://classicalguitartablature.blogspot.com/
E| 0------ 0------ 0------ 0------| 2------ 2------ 2--------------|
B|---- 0------ 0------ 0----------| 4---------------------- 4------|
G| 1-------------------------- 4--|---- 4------ 4------ 4------ 4--|
D|--------------------------------|---------------------- 4---- 6--|
A|---------------------------- 2--|-------------------- 4-- 6------|
E|-------------------- 2-- 4------|---------------------------- 4--|
ClassicalGuitarTablature http://classicalguitartablature.blogspot.com/
E|--------------------------------|--------------------------------|
B| 4------ 4------ 4------ 4-- 0--| 2------ 2------ 2--------------|
G|---- 4------ 4------ 4----------|---- 2------ 2---------- 6------|
D|-------------------- 6----------|-------------------- 7------ 7--|
A|---------------------------- 0--|-------------------- 6-- 7------|
E|------------------------ 4------|--------------------------------|
ClassicalGuitarTablature http://classicalguitartablature.blogspot.com/
E| 0------ 0------ 0------ 4------| 2-- 2------ 4------------------|
B|---- 0------ 0------ 0------ 5--|------------------------ 7------|
G|--------------------------------|------------------ 4-------- 4--|
D|--------------------------------|--------------------------------|
A|---------------------------- 2--|-------------------- 4-- 6---- 4|
E| 0---------------------- 4------|--------------------------------|
ClassicalGuitarTablature http://classicalguitartablature.blogspot.com/
E|--------------------------------| 7-- 7------ 4------------------|
B| 5------ 5---------- 5-- 5-- 5--|-------------------- 7----------|
G|---- 4------ 4-- 6---------- 6--|--------------------------------|
D|--------------------------------|--------------------------------|
A|-------------------- 6-- 7-- 0--|-------------------- 6-- 7------|
E|--------------------------------|--------------------------------|
ClassicalGuitarTablature http://classicalguitartablature.blogspot.com/
E| 0------ 0------ 0------ 4------| 2-- 2------ 4------------------|
B|---- 0------ 0------ 0------ 5--|------------------ 7------ 5-- 7|
G|--------------------------------|------------------------------ 4|
D|--------------------------------|--------------------------------|
A|---------------------------- 2--|------------------ 4---- 6------|
E| 0---------------------- 4------|------------------------------ 4|
ClassicalGuitarTablature http://classicalguitartablature.blogspot.com/
E|------ 4---------------- 4-- 2--|-------- 4 2 4 2-------------- 2|
B|------------ 7------------------|------------------ 5------------|
G|-------------------- 4----------|--------------------------------|
D|-- 6------------ 6--------------|---- 2--------------------------|
A|--------------------------------| 0------------ 0------ 0-- 0----|
E|--------------------------------|--------------------------------|
ClassicalGuitarTablature http://classicalguitartablature.blogspot.com/
E|---------- 0------------------ 2|--------------------------------|
B| 4---------------------------- 4|------------ 9---------------- 4|
G| 4---------- 2---------- 2------| 4---------------------------- 4|
D|---------- 2------------ 2------|------------------------------ 4|
A| 0-- 0-- 0-- 0-- 0-- 0-- 0-- 0--| 0-- 0-- 0-- 0-- 911 9----------|
E|--------------------------------|----------------------12---- 9 0|
ClassicalGuitarTablature http://classicalguitartablature.blogspot.com/
E|------------------------------ 7|------ 5---- 4---------------- 2|
B|---------- 5-- 5-- 5-- 5-- 5-- 5|------ 5---- 5---------- 7------|
G|--------------------------------|------------------------ 4------|
D|---------- 6--------------------|--------------------------------|
A|--------------------------------|--------------------------------|
E|-- 0-- 0-- 0---- 0-- 0 0-- 0----| 0-- 0-- 0-- 0-- 0-- 0-- 0-- 0--|
ClassicalGuitarTablature http://classicalguitartablature.blogspot.com/
E|---------- 0------------------ 2|--------------------------------|
B| 4---------------------------- 4|------------ 9------ 7-- 5-- 7--|
G| 4---------- 2---------- 2------| 4------------------------------|
D|---------- 2------------ 2------|--------------------------------|
A| 0-- 0-- 0-- 0-- 0-- 0-- 0-- 0--| 0-- 0-- 0-- 0-- 9-- 9-- 7-- 4--|
E|--------------------------------|--------------------------------|
ClassicalGuitarTablature http://classicalguitartablature.blogspot.com/
E|-------- 4----------------------|------------ 0---------------- 2|
B|-------- 5-- 5------------------| 4---------- 0------------------|
G|-------- 4-- 4------------------| 4------------------------------|
D|------------ 6------------------| 4------------------------------|
A|--------------------------------|---- 7-- 6------ 7------ 6-- 7--|
E| 0-- 0-- 0-- 0-- 0-- 0-- 0-- 0--| 0---------- 0------ 0----------|
ClassicalGuitarTablature http://classicalguitartablature.blogspot.com/
E|---------- 0------------------ 2|--------------------------------|
B| 4---------------------------- 4|------------ 9---------------- 4|
G| 4---------- 2---------- 2------| 4---------------------------- 4|
D|---------- 2------------ 2------|------------------------------ 4|
A| 0-- 0-- 0-- 0-- 0-- 0-- 0-- 0--| 0-- 0-- 0-- 0-- 911 9----------|
E|--------------------------------|----------------------12---- 9 0|
ClassicalGuitarTablature http://classicalguitartablature.blogspot.com/
E|------------------------------ 7|------ 5---- 4---------------- 2|
B|---------- 5-- 5-- 5-- 5-- 5-- 5|------ 5---- 5---------- 7------|
G|--------------------------------|------------------------ 4------|
D|---------- 6--------------------|--------------------------------|
A|--------------------------------|--------------------------------|
E|-- 0-- 0-- 0---- 0-- 0 0-- 0----| 0-- 0-- 0-- 0-- 0-- 0-- 0-- 0--|
ClassicalGuitarTablature http://classicalguitartablature.blogspot.com/
E|---------- 0------------------ 2|---------------------------- 7--|
B| 4---------------------------- 4|------------ 9------ 7-- 5-- 4--|
G| 4---------- 2---------- 2------| 4-------------------------- 4--|
D|---------- 2------------ 2------|--------------------------------|
A| 0-- 0-- 0-- 0-- 0-- 0-- 0-- 0--| 0-- 0-- 0-- 0-- 9-- 9-- 7------|
E|--------------------------------|--------------------------------|
ClassicalGuitarTablature http://classicalguitartablature.blogspot.com/
E|--------------------------------|--------------------------------|
B|------------ 5------------------| 4------ 5-- 5------------------|
G|------------ 4------------------| 4------ 4-- 6------------------|
D|------------ 6------------------| 4------ 6-- 7------------------|
A|--------------------------------|------------ 0-------- 0--------|
E| 7---------- 0------------------| 7------ 0----------------------|
ClassicalGuitarTablature http://classicalguitartablature.blogspot.com/
E| 5---------- 4-------------- 2--| 5---------- 4------------------|
B| 0---------- 0-------------- 0--| 4------------------ 4------ 4--|
G|--------------------------------| 4---------- 4------ 4------ 4--|
D|--------------------------------|--------------------------------|
A|--------------------------------| 2------ 2------ 2------ 2------|
E| 0------ 0------ 0------ 0------|--------------------------------|
ClassicalGuitarTablature http://classicalguitartablature.blogspot.com/
E|---------------- 5-- 4 5-- 7----| 9------------------------------|
B|---- 5------ 5-- 5---- 5-- 5----| 912-------- 9------------------|
G|---- 6------ 6-- 4-- 4 4-- 4----| 9---------- 9------11------ 9--|
D|---- 6------ 6------------------|----11------11------11------11--|
A| 4------ 4------ 4------ 4------| 0------ 0------ 0------ 0------|
E|--------------------------------|--------------------------------|
ClassicalGuitarTablature http://classicalguitartablature.blogspot.com/
E| 5---------- 4------------------| 5---------- 4------ 2----------|
B| 0---------- 0------ 0------ 0--| 4---------- 4------ 4------ 5--|
G|--------------------------------| 4---------- 4------ 4------ 4--|
D|--------------------------------|--------------------------------|
A|--------------------------------| 2------ 2------ 2------ 2------|
E| 0------ 0------ 0------ 0------|--------------------------------|
ClassicalGuitarTablature http://classicalguitartablature.blogspot.com/
E| 7------------------------------| 0------------------------------|
B| 5---------- 5------ 5---- 5----| 5---------- 5---- 5------ 5----|
G| 4---------- 4---------- 4------| 6------------------------------|
D|------------ 6------ 6---- 6----| 7---------- 7------ 7------ 7--|
A|--------------------------------| 0------ 0-- 0-- 0-- 0-- 0-- 0--|
E| 4------ 4------ 4------ 4------|--------------------------------|
ClassicalGuitarTablature http://classicalguitartablature.blogspot.com/
E| 5---------- 4-------------- 2--| 5---------- 4------------------|
B| 0---------- 0-------------- 0--| 4------------------ 4------ 4--|
G|--------------------------------| 4---------- 4------ 4------ 4--|
D|--------------------------------|--------------------------------|
A|--------------------------------| 2------ 2------ 2------ 2------|
E| 0------ 0------ 0------ 0------|--------------------------------|
ClassicalGuitarTablature http://classicalguitartablature.blogspot.com/
E|---------------- 5-- 4 5-- 7----| 9------------------------------|
B|---- 5------ 5-- 5---- 5-- 5----| 912-------- 9------------------|
G|---- 6------ 6-- 4-- 4 4-- 4----| 9---------- 9------11------ 9--|
D|---- 6------ 6------------------|----11------11------11------11--|
A| 4------ 4------ 4------ 4------| 0------ 0------ 0------ 0------|
E|--------------------------------|--------------------------------|
ClassicalGuitarTablature http://classicalguitartablature.blogspot.com/
E| 5---------- 4------------------| 5---------- 4------ 2----------|
B| 0---------- 0------ 0------ 0--| 4---------- 4------ 4------ 5--|
G|--------------------------------| 4---------- 4------ 4------ 4--|
D|--------------------------------|--------------------------------|
A|--------------------------------| 2------ 2------ 2------ 2------|
E| 0------ 0------ 0------ 0------|--------------------------------|
ClassicalGuitarTablature http://classicalguitartablature.blogspot.com/
E| 7------------------------------| 0------------------------------|
B| 5---------- 5------ 5---- 5----| 5---------- 5---- 5------ 5----|
G| 4---------- 4---------- 4------| 6------------------------------|
D|------------ 6------ 6---- 6----| 7---------- 7------ 7------ 7--|
A|--------------------------------| 0------ 0-- 0-- 0-- 0-- 0-- 0--|
E| 4------ 4------ 4------ 4------|--------------------------------|
ClassicalGuitarTablature http://classicalguitartablature.blogspot.com/
E|--------------------------------|--------------------------------|
B|10---------- 9------------------|10---------- 9------------------|
G| 9---------- 9--------------11--| 9---------- 9------------------|
D|11---------- 9------------------|11---------- 9------------------|
A|--------------------------------|--------------------------------|
E| 0---------- 0------------------| 0------------------------------|
ClassicalGuitarTablature http://classicalguitartablature.blogspot.com/

0 ความคิดเห็น:

แสดงความคิดเห็น